PrimaNota.ru - самый крупный в мире бесплатный архив песенных текстов, аккордов, табулатур и нот


Caliban - This Oath - текст песни, таба, видео

Регистрация Запомнить меня
Войти через:  Facebook Google Twitter Vk Yandex Mail.ru

Caliban - This Oath - текст песни, таба, видео

Печатать
Просмотров: 994
-------------------------------------------------------------------------------
                             Caliban - This Oath
-------------------------------------------------------------------------------
Tabbed by: rock(k)dash
YouTube: youtube.com/user/rockkdash/videos

Tuning: Drop B (B F# B E G# C#)



Intro
------------------------------------------------|
-----10-------10--9---------9--7--------7-------|
---------6------------6-------------------------|  x2
-----------------------------------7------------|
------------------------------------------------|
------------------------------------------------|

1. Verse
------------------------------------------------------|
-----10-------10--9---------9--7-------7-------9------|
---------6------------6-------------------------------|   x3
----------------------------------7----------9---9----|
------------------------------------------------------|
------------------------------------------------------|

------------------------------------------|
-----10-------10--9---------9--7----------|
---------6------------6-------------------|
----------------------------------7-------|
------------------------------------------|
------------------------------------------|

Chorus
--------------------------------------------------------------|
--------------------------------------------------------------|
----------------2----2-2--------------------------------------|
---4--4--4--4-4-2----2-2-0------------------------------------|
---4--4--4--4-4-0----0-0-0---------12-12-----11-11---11-11----|
---4--4--4--4-4----------0-----0---------0---------0----------|
PM          ...      ...                           .

--------------------------------------------------------------|
--------------------------------------------------------------|
-----------------2----2-2-------------------------------------|
-----4---4---4-4-2----2-2-6---6-------------------------------|
-----4---4---4-4-0----0-0-4---4--7-7-4---6-6-4-6-6------------|
-----4---4---4-4----------------------------------------------|
PM           ...       ...

------------------------------------------------------------------|
------------------------------------------------------------------|
----------------2----2-2------------------------------------------|
---4--4--4--4-4-2----2-2-0----------------------------------------|
---4--4--4--4-4-0----0-0-0---------12-12-----11-11---11-11--------|
---4--4--4--4-4----------0-----0---------0---------0--------------|
PM          ...      ...                           .

--------------------------------------------------------------|
--------------------------------------------------------------|
---------------2----2-2---------------------------------------|
---4---4---4-4-2----2-2-2----2--2-2-0-0-0-0-0-0-0-------------|
---4---4---4-4-0----0-0-2----2--2-2-0-0-0-0-0-0-0-------------|
---4---4---4-4----------2----2--2-2-0-0-0-0-0-0-0-------------|
PM         ...      ...             .............


2. Verse
-------------------------------------------------------|
-----10-------10--9---------9--7-------7-------9-------|
---------6------------6--------------------------------|   x3
-----------------------------------7---------9---9-----|
-------------------------------------------------------|
-------------------------------------------------------|

--------------------------------------------|
-----10-------10--9---------9--7------------|
---------6------------6---------------------|
-----------------------------------7--------|
--------------------------------------------|
--------------------------------------------|

Bridge
--------------------------------------------------|
-----10--9----------------------------------------|
-------------9--6---------------------------------|
------------------------------9----12----14-------|
--------------------------------------------------|
--------------------------------------------------|

------------------------------------------------|
------------------------------------------------|
------------------------------------------------|
------------------------------0-----------------|
-----4-4-4-4-4-4-4-4-4-4-4-4--0--0-0-0-0-0-0----|
------4-4-4-4-6-6-6-6-7-7-7-7-0--0-0-0-0-0-0----|
PM    . . . . . . . . . . . .

----------------------------------------------------------------------------|
----------------------------------------------------------------------------|
----------------------------------------------------------------------------|
------------------------------------------------------0---------------------|
------4-4-4-4-4-4-4-4-4-4-4-4-4-4-4-4-2-2-2-2-2-2-2-2p0--0-0-0-0-0-0--------|
------4-4-4-4-4-4-4-4-6-6-6-6-6-6-6-6-2-2-2-2-2-2-2-2p0--0-0-0-0-0-0--------|
PM    ...............................................    ...........



Chorus(2x)
--------------------------------------------------------------|
--------------------------------------------------------------|
----------------2----2-2--------------------------------------|
---4--4--4--4-4-2----2-2-0------------------------------------|
---4--4--4--4-4-0----0-0-0---------12-12-----11-11---11-11----|
---4--4--4--4-4----------0-----0---------0---------0----------|
PM          ...      ...                           .

--------------------------------------------------------------|
--------------------------------------------------------------|
-----------------2----2-2-------------------------------------|
-----4---4---4-4-2----2-2-6---6-------------------------------|
-----4---4---4-4-0----0-0-4---4--7-7-4---6-6-4-6-6------------|
-----4---4---4-4----------------------------------------------|
PM           ...       ...

------------------------------------------------------------------|
------------------------------------------------------------------|
----------------2----2-2------------------------------------------|
---4--4--4--4-4-2----2-2-0----------------------------------------|
---4--4--4--4-4-0----0-0-0---------12-12-----11-11---11-11--------|
---4--4--4--4-4----------0-----0---------0---------0--------------|
PM          ...      ...                           .

--------------------------------------------------------------|
--------------------------------------------------------------|
---------------2----2-2---------------------------------------|
---4---4---4-4-2----2-2-2----2--2-2-0-0-0-0-0-0-0-------------|
---4---4---4-4-0----0-0-2----2--2-2-0-0-0-0-0-0-0-------------|
---4---4---4-4----------2----2--2-2-0-0-0-0-0-0-0-------------|
PM         ...      ...             .............
Добавлено: 05.08.2013
Другие материалы по этой песне:

Страница создана 07.07.2013
http://primanota.ru/caliban/this-oath-chords.htm
Привет, Гость.
Предлагаем пройти революционный курс по гитаре.
Подарок от PrimaNota.Ru, забирай!