PrimaNota.ru - самый крупный в мире бесплатный архив песенных текстов, аккордов, табулатур и нот


Caliban - No One Is Safe - текст песни, таба, видео

Регистрация Запомнить меня
Войти через:  Facebook Google Twitter Vk Yandex Mail.ru

Caliban - No One Is Safe - текст песни, таба, видео

Печатать
Просмотров: 225
intro/verse:

----------------------------------------------------------|
----------------------------------------------------------|
-----------------------------------------------2-2-3-3----|
-----------------------------------------------2-2-3-3----|
------------888555--------000111--------888555-0-0-1-1----|
----00000000------00000000------00000000------------------|

----------------------------------------------------------|
----------------------------------------------------------|
-----------------------------------------------3-3-5-5----|
-----------------------------------------------3-3-5-5----|
------------888555--------000111--------888555-1-1-3-3----|
----00000000------00000000------00000000------------------|


chorus:

----------------------------------------------------------|
----------------------------------------------------------|
----7-7-77-7-7-7-777-2-2-22-3-3-3-333---------------------|
----7-7-77-7-7-7-777-2-2-22-3-3-3-333---------------------|
----5-5-55-5-5-5-555-0-0-00-1-1-1-111---------------------|
----0-0-00-0-0-0-000--------------------------------------|


bridge1:

----------------------------------------------------------|
----13--------------------15-11-13------------------------|
----15--------------------17-13-15------------------------|2times
----------------------------------------------------------|
------0-0-000-0001-0-0-000--------0000-000-0001-0001-3----|
------0-0-000-0001-0-0-000--------0000-000-0001-0001-3-3^-|

----------------------------------------------------------|
----------------------------------------------------------|
----------------------------------------------------------|
----------------------------------------------------------|
----2-22-22--22-22--2222-2-22-22--22-22--2222-------------|2times
----2-22-22--22-22--2222-2-22-22--22-22--2222-------------|

verse,chorus,
bridge2:

----17--17-17-18-17-15-15--15-15-15-15-15-13--13-12-------|(not shure)
----------------------------------------------------------|
----------------------------------------------------------|
----------------------------------------------------------|
----------------------------------------------------------|
----------------------------------------------------------|

--------------------------------------------------------------|
--------------------------------------------------------------|
--------------------------------------------------------------|
--------------------------------------------------------------|
----0--0000-0--000000-0--0000-0--0--0000-0--000000-2--22223---|
----0--0000-0--000000-0--0000-0--0--0000-0--000000-2--22223---|

--------------------------------------------------------------|
-----------10~----------10h11p10~----------9~-----------------|
----7-9-10-------7-9-10-------------7-9-10--------------------|
--------------------------------------------------------------|
--------------------------------------------------------------|
--------------------------------------------------------------|


bridge1,chorus,bridge1,


please vote!!!
Добавлено: 25.05.2012
Другие материалы по этой песне:
  • Аккорды и текст

Страница создана 25.05.2012
http://primanota.ru/caliban/no-one-is-safe-chords.htm
Привет, Гость.
Предлагаем пройти революционный курс по гитаре.
Подарок от PrimaNota.Ru, забирай!