PrimaNota.ru - самый крупный в мире бесплатный архив песенных текстов, аккордов, табулатур и нот


Burzum - Inn I Slottet Fra Droemmen - таба, видео

Регистрация Запомнить меня
Войти через:  Facebook Google Twitter Vk Yandex Mail.ru

Burzum - Inn I Slottet Fra Droemmen - таба, видео

Печатать
Просмотров: 164
Song:Inn I Slottet Fra Droemmen
Artist:Burzum
Album:Hvis Lyset Tar Oss
Tabbed by:Thegreateye@hotmail.com

    This Song proves that Varg Is a bad ass Geetar player ....


Key:
AFAP=AS FAST AS POSSIBLE
p=pull-off
/=slide
h-hammer-on
pm=palm mute
...=tremelo
tr=trill
v=vibrato
b=bend
ah=artificial harmonic
()=ring out

Riff 1A:Gradually gaining speed . Make sure to bend the chords to get the 
right sound ...
-----------------------------------------------------
-----------------------------------------------------
-----------------------------------------------------
--3--b6-----5-----b5-----5--3--6-----5-----b5-----5--
--3--b6--5--5--5--b5--5--5--3--6--5--5--5--b4--5--5--
--1--b4--0--3--0--b3--0--3--1--4--0--3--0--b3--0--3--
PM.      .     .     .     .     .     .     .

Riff 2:AFAP
--------------------------------------------------------------------
--------------------------------------------------------------------
--666666666--6666--666666666--6666--666666--6---999-666--999--666---
--666666666--5555--666666666--5555--666666--5h6-888-555--888--555---
--333333333--3333--333333333--3333--333333--3---666-333--666--333-2-
------------------------------------------------------------------0-

Riff 3
---------------------------
---------------------------
-----10-----9-----9-----9--
-----10-----9-----8-----9--
--888-8-777-7-777-7-777-7--
--000---000-0-000-0-000-0--
PM...   ...   ...   ...

Verse Riff : Play Four Times AFAP (Those are elevens not ones ! ) That 
arpeggio may not be there but It sounds better ...
--------------------------------------------------------------------------------------------------
-/111111111111111111---/11111111111111--12121212--------------------------------------------------
-/121212121212121212---/12121212121212--13131313----5-5--5-5---5-5---5-5---5-5---5-5---5-5---5-5--
-/121212121212121212---/12121212121212--13131313-----5----5-----5-----5-----5-----5-----5-----5---
-/101010101010101010---/10101010101010--11111111--3---------3------------3-----------3------------
-------------------------------------------------------3-----------3-----------3-----------3------

Riff 1 B:Triplets now ...
---------------------------------------------------------------------
---------------------------------------------------------------------
---------------------------------------------------------------------
--333--b6-------5-------b5-------5--333--6-------5-------b5-------5--
--333--b6--555--5--555--b5--555--5--333--6--555--5--555--b4--555--5--
--111--b4--000--3--000--b3--000--3--111--4--000--3--000--b3--000--3--
PM...      ...     ...      ...     ...     ...     ...      ...

Repeat Riff 2

Riff 4:AFAP , Again the Arpeggio may not be there but I assure you It sounds 
better than a power chord when played fast ...
------------------------------------------
------------------------------------------
------------------------------------------
--555555555555-----7-7----7----7-7----7---
--333333333333------7----7-7----7----7-7--
--333333333333---5-----5------5----5------

Riff 5:No Drums . Hit the open G with your Middle Finger . Four Times ...
------------------------------------------------
---------10-------------12----------------------
-------9----9--------11----------/9--11--0------
--/7-----------/9----------v9-------------------
-----0------------9--------------/7--9---8--9---
------------------------------------------------

Riff 6: Two Times...
-----------------------------------------------------------------------------
-----------------------------------------------------------------------------
-----------------------------------------------------------------------------
------7-----7------8-----8----8-----8------7-----7------8-----8-----8-----8--
----0-----0------8-----8-----8----8-----0-----0-------8-----8-----7-----7----
--5-----5------6-----6-----6----6-------5-----5-----6-----6-----6-----6------

Play 5 and 6 Twice

Riff 7 :
----------------------------------------------------------------------------------------------------
----------------------------------------------------------------------------------------------------
----------------------------------------------------------------------------------------------------
-2-2--2-2-2---/9-9--5-5---2-2--2-2-2---/9---5-5---2-2--2-2-2---/9-9--5-5---2-2--2--22--3/5-55--3/5--
-2-2--2-2-2---/7-7--3-3---2-2--2-2-2---/7---3-3---2-2--2-2-2---/7-7--3-3---2-2--2--22--3/5-55--3/5--
-0-0--3-1-0---/7-7--3-3---0-0--3-1-0---/7---3-3---0-0--3-1-0---/7-7--3-3---0-0--1--00--1/3-33--1/3--

Fill:
---------
---------
---------
-/10--7--
-/10--7--
-/-8--9--

Repeat Riff 6

Back to Riff 7 Twice

Rhythm Riff:Goes With the lead , very similar ...
------------------------------------------------------------------------------
------------------------------------------------------------------------------
------------------------------------------------------------------------------
-2-2-2-22-3/5-55-3/5--2-2--2--2--5-5-5/4-4-3-3-3/5-55-3/5--2-2-2-2--b3---5-5--
-2-2-2-22-3/5-55-3/5--2-2--2--2--3-3-3/2-2-3-3-3/5-55-3/5--2-2-2-2--b3---5-5--
-0-0-1-00-1/3-33-1/3--0-0--1--0--3-3-3/2-2-1-1-1/3-33-1/3--0-0-1-0--b1---3-3--

Repeat Riff 7 Four Times

Then TO the Ending

Lead:This Fades the song out ...
----------------------------------------------------------------------------------------------------------------------
-----------------------------------------------/13----12h13p12p10--12-------------------------------------------------
----9----10-v9--10/12-12-12-10/12----9---10-v9------------------------/9-v9-10/12-12-12-10/12------9-10-9-10-/12-v12--
------9--------------------------------9-----------10--------------------------------------------9--------------------
--7------------------------------7-------------------------------------------------------------7----------------------
----------------------------------------------------------------------------------------------------------------------

Good Stuff ...
Добавлено: 12.03.2012
Другие материалы по этой песне:

Страница создана 12.03.2012
http://primanota.ru/burzum/inn-i-slottet-fra-droemmen-chords.htm
Привет, Гость.
Предлагаем пройти революционный курс по гитаре.
Подарок от PrimaNota.Ru, забирай!