PrimaNota.ru - самый крупный в мире бесплатный архив песенных текстов, аккордов, табулатур и нот


Bullet For My Valentine - Who Do You Think You Are - таба, видео

Регистрация Запомнить меня
Войти через:  Facebook Google Twitter Vk Yandex Mail.ru

Bullet For My Valentine - Who Do You Think You Are - таба, видео

Печатать
Просмотров: 385
Уроки эстрадного вокала в Санкт-Петербурге
Enjoy!

h = hammer on
p = pull off
^ = slight bend
fb = full bend

|--------------------------------------------------------------------------|
|--------------------------------------------------------------------------|
|--------------------------------------------------------------------------|
|--------------------------------------------------------------------------|
|---3h5-------3h5-------3h5---3h5-------3h5-------3h5-------3h5-------3h5--|
|-------0-0-0-----0-0-0-----0-----0-0-0-----0-0-0-----0-0-0-----0-0-0------|


|------------------------------|
|------------------------------|
|------------------------------|
|------------------------------|
|------------------------------|
|--1h3p1--3h5p3--5h7p5--7h9p7--|


|-----------------------------------------|
|-----------------------------------------|
|-----------------------------------------|
|--0---0-0-----0-0---0---0-0---0-0-0---0--|
|--0---0-0-----0-0---0---0-0---0-0-0---0--|
|--0---0-0-----0-0---0---0-0---0-0-0---0--|


|------------------------------|
|------------------------------|
|------------------------------|
|------------------------------|
|------------------------------|
|--1h3p1--3h5p3--5h7p5--7h9p7--|



CHORUS

|-----------------------------|
|-----------------------------|
|--5-5-5-5-5-5-5-5-5-5-5-5-5--|
|--5-5-5-5-5-5-5-5-5-5-5-5-5--|
|--7-7-7-7-7-7-7-7-7-7-7-7-7--|
|-----------------------------|


|-----------------------------|
|-----------------------------|
|--3-3-3-3-3-3-3-3-3-3-3-3-3--|
|--3-3-3-3-3-3-3-3-3-3-3-3-3--|
|--5-5-5-5-5-5-5-5-5-5-5-5-5--|
|-----------------------------|


|-----------------------------|
|-----------------------------|
|--5-5-5-5-5-5-5-5-5-5-5-5-5--|
|--5-5-5-5-5-5-5-5-5-5-5-5-5--|
|--7-7-7-7-7-7-7-7-7-7-7-7-7--|
|-----------------------------|


|-----------------------------|
|-----------------------------|
|--3-3-3-3-3-3-5-5-5-5-5-5-5--|
|--3-3-3-3-3-3-5-5-5-5-5-5-5--|
|--1-1-1-1-1-1-3-3-3-3-3-3-3--|
|-----------------------------|   X2


|-----------------------------|
|-----------------------------|
|--3-3-3-3-3-3-5-5-5-5-5-5-5--|
|--3-3-3-3-3-3-5-5-5-5-5-5-5--|
|--1-1-1-1-1-1-3-3-3-3-3-3-3--|
|-----------------------------|



SOLO

|-----------------------------------------------|
|-----------------------------------------------|
|--7-----9-10-7-----9-10-7----9-10-7----9-10-5--|
|-----------------------------------------------|
|-----------------------------------------------|
|-----------------------------------------------|


|-------------------------------------------------------------|
|-----------------------------------------------8---10---13^--|
|--9-10-7-----9-10-7-----9-10-7---9-10-7---9-10---9----9------|
|-------------------------------------------------------------|
|-------------------------------------------------------------|
|-------------------------------------------------------------|


|--------------------------------------------------|
|--------------------------------------------------|
|--9-10-7-----9-10-7-----9-10-7---9-10-7---9-10-5--|
|--------------------------------------------------|
|--------------------------------------------------|
|--------------------------------------------------|


|-------------------------------------------------------------|
|-----------------------------------------------8---10---13^--|
|--9-10-7-----9-10-7-----9-10-7---9-10-7---9-10---9----9------|
|-------------------------------------------------------------|
|-------------------------------------------------------------|
|-------------------------------------------------------------|


|--10-----12-----13-----15-------20fb---20^--|
|--12^----14^----15^----17^------------------|
|--------------------------------------------|
|--------------------------------------------|
|--------------------------------------------|
|--------------------------------------------|


|-----10--13p10h12p10-----10--13p10h12p10-----10--13p10h12p10--|
|--13------------------13------------------13------------------|
|--------------------------------------------------------------|
|--------------------------------------------------------------|
|--------------------------------------------------------------|
|--------------------------------------------------------------|


|-----10--13p10h12p10-----10--13p10h12p10-----10--13p10h12p10--|
|--13------------------13------------------13------------------|
|--------------------------------------------------------------|
|--------------------------------------------------------------|
|--------------------------------------------------------------|
|--------------------------------------------------------------|


|-----10--13p10h12p10--|
|--13------------------|
|----------------------|
|----------------------|
|----------------------|
|----------------------|

The rest is just rhythm.
Simple stuff.





Consider the fact that this is the only tab of this song, so the solo needs a little work.
Of course.
NOTE* - The easiest place to find this song is YouTube.
Добавлено: 31.03.2012
Другие материалы по этой песне:
  • Аккорды и текст

Страница создана 31.03.2012
http://primanota.ru/bullet-for-my-valentine/who-do-you-think-you-are-chords.htm
Привет, Гость.
Предлагаем пройти революционный курс по гитаре.
Подарок от PrimaNota.Ru, забирай!