PrimaNota.ru - самый крупный в мире бесплатный архив песенных текстов, аккордов, табулатур и нот


Bruce Dickinson - Darkside Of Aquarius - аккорды и текст, таба, бас-таба, видео

Регистрация Запомнить меня
Войти через:  Facebook Google Twitter Vk Yandex Mail.ru

Bruce Dickinson - Darkside Of Aquarius - аккорды и текст, таба, бас-таба, видео

Печатать
Просмотров: 180
Darkside Of Aquarius
Bruce Dickinson
		   t. See http://www..net/faq/ for more information.                     #
#-----------------------------------------------------------------------------#


Song: Darkside Of Aquarius
Artist: Bruce Dickinson
Album: Accident Of Birth
Written By Bruce Dickinson and Roy Z

Tabbed & transcribed by Ricardo Bustos O.
email: RBO567@Hotmail.com


pm = palm muting
h = hammer on
p = pull off
x = harmonic note
/ = slide
* = stay in that note for certain time
b = bend


Riff 1
Riff 2(4 times)
Riff 3(2 times)
Bridge 1
Riff 3
Bridge 1
Riff 3(4 times)
Bridge 1
Riff 3
Bridge 1
Chorus Riff(2 times)
Bridge 2
Riff 3(4 times)
Bridge 1
Riff 3
Bridge 1
Chorus Riff(4 times)
Bridge 3
Solo 1
Solo 2
Bridge 4
Bridge 5
Riff 4(2 times)
Bridge 6
Riff 4(4 times)
Bridge 7
Riff 5(2 times)
Riff 4('til it ends)


Riff 1: with clean sound


E---------------------------------------------
B---------------------------------------------
G-9----10-12--14-12-10----9----10-12--14-12-10
D-0----0--0---0--0--0-----0----0--0---0--0--0-
A---------------------------------------------
E---------------------------------------------


E---------------------------------------------
B---------------------------------------------
G-15---14-12-14----12--9--10----15---14-12-14-
D-0----0--0--0-----0---0--0-----0----0--0--0---
A---------------------------------------------
E---------------------------------------------


E---------------------------------------------
B---------------------------------------------
G---12--9--10-------9------10-----------------
D---0---0--0--------0-------0-----------------
A---------------------------------------------
E---------------------------------------------


Riff 2 : with heavy distortion


E---------------------------------------------
B---------------------------------------------
G---------------------------------------------
D---------------12-10---------------12--13----
A--555555555555-10--8--555555555555-10--11----
E---------------------------------------------
   pm......pm..        pm.....pm...


Riff 3:

E-------------------------------------------------
B-------------------------------------------------
G-------------------------------------------------
D-------3------------5-3---------3----------------
A3h5-55---555--3h5-55-----3h5-55---555--3h5-55-5-3
E----------------------------------------------3-1


Bridge 1:

E---------------------------------------------
B---------------------------------------------
G---------------------------------------------
D---------------------------------------------
A--5---5-7-8---10-----------------------------
E--3---3-5-6---8------------------------------


Chorus Riff :


E---------------------------------------------
B---------------------------------------------
G---------------------------------------------
D--7---------------------3---5----------------
A--5---------3-----5-----1---3----------------
E------------1-----3--------------------------


Bridge 2:

E-------------------------------------------------
B-------------------------------------------------
G-------------------------------------------------
D-------3------------5-3---------3----------------
A3h5-55---555--3h5-55-----3h5-55---555--3h5-55-5-3
E----------------------------------------------3-1


E-------------------------------------------------
B-------------------------------------------------
G-------------------------------------------------
D-------3------------5-3--3-3--3-3--5-5--5-5------
A3h5-55---555--3h5-55-----1-1--1-1--3-3--3-3------
E-------------------------------------------------

Bridge 3:
Hear the song to get the rhythm

E---------------------------------------------
B---------------------------------------------
G---------------------------------------------
D--7-7-7-7---7-7-7-7---7-7---7-7-7-7---7-5----
A--5-5-5-5---5-5-5-5---5-5---5-5-5-5---5-3----
E---------------------------------------------


E---------------------------------------------
B---------------------------------------------
G---------------------------------------------
D--7-7-7-7---7-7-7-7---7-7---7-7-7-7---7-5----
A--5-5-5-5---5-5-5-5---5-5---5-5-5-5---5-3----
E---------------------------------------------


E---------------------------------------------
B---------------------------------------------
G---------------------------------------------
D--10101010--10101010--1010--10101010--105----
A--8-8-8-8---8-8-8-8---8-8---8-8-8-8---8-3----
E---------------------------------------------



E---------------------------------------------
B---------------------------------------------
G---------------------------------------------
D--7-7-7-7---7-7-7-7---7-7---7-7-7-7---7-5----
A--5-5-5-5---5-5-5-5---5-5---5-5-5-5---5-3----
E---------------------------------------------


solo 1:

E---------------------------------------------
B----------------------------------10p8-------
G---------------------7--6--9*h10-------10-9--
D-5-5--7*----5--7--8--------------------------
A---------------------------------------------
E---------------------------------------------



E-------------------------------------------------
B-----------------------------------------10-11-10
G7-6----------------------------------------------
D----7p5------------------------------------------
A--------8-7-5-4---------------------5------------
E----------------6-5----5-6-8--5-6-8---8-6--------
            pm....pm    pm........pm......


E--10-9----------------------------9-10-9------
B-------11-10-8--------------10-11--------10-11
G---------------10-9-7-6-----------------------
D------------------------8*--------------------
A----------------------------------------------
E----------------------------------------------
                            (really fast.....

E9-10--9*--9-10-12--9-10-12-13*---------------
B---------------------------------------------
G---------------------------------------------
D---------------------------------------------
A---------------------------------------------
E---------------------------------------------
.......)

solo 2:


E---------------------------------11-10-8------
B-----------------------------------------11-10
G----------------------------------------------
D-----------------------5--8--7*---------------
A--------0--1--3--5--6-------------------------
E--2*--3---------------------------------------
                                  (fast.......


E---------------------------------------------
B---------------8-10-9-8-11-10-9-------------
G-10-9-7--7-9-10------------------10-9-7------
D---------------------------------------10-9-7
A---------------------------------------------
E---------------------------------------------
..fast.........really fast..................


E-------------14-15-17-14-15-17-14-15-17-14-15
B---------------------------------------------
G10-9-7---------------------------------------
D------10-9-7---------------------------------
A---------------------------------------------
E---------------------------------------------
.........really fast.........................



E17-------------------------------------------
B--16-15-16-13-16--------------------13-15----
G-----------------15-14-12--12-14-15----------
D---------------------------------------------
A---------------------------------------------
E---------------------------------------------
......really fast..........................)


E15-15-15-------------------------------------
B---------16-16-16-15*-------------13--15--16-
G-----------------------12--14--15------------
D---------------------------------------------
A---------------------------------------------
E---------------------------------------------


E---------------------------------------------
B----13h15p13----13h15p13---------------------
G-15----------15----------15-14-12-15-14-12---
D---------------------------------------------
A---------------------------------------------
E---------------------------------------------
                           (....fast.......)

E---------------------------------------------
B---------------------------------------------
G----------/14*-------------------------------
D15-14-12-------------------------------------
A---------------------------------------------
E---------------------------------------------


Bridge 4:
Repeat this part 4 times

E----------------------------------------------
B----------------------------------------------
G----------------------------------------------
D----------------------------------------------
A-13-000-12-000-10-000-8-000-7-000-8-000-10-000
E----------------------------------------------


E---------------------------------------------
B---------------------------------------------
G---------------------------------------------
D---------------------------------------------
A-8-000-7-000-5-000-4-000-5-000---------------
E---------------------------------------------

then play this:


E----------------------------------------------
B----------------------------------------------
G----------------------------------------------
D---------------------------------------------
A-13-000-12-000-10-000-8-000-7-000-8-13p12p10-8
E----------------------------------------------

E---------------------------------------------
B---------------------------------------------
G---------------------------------------------
D---------------------------------------------
A-12p10p8-7--10p8p7-5--8p7p5-3-5--------------
E---------------------------------------------


Bridge 5:

E---------------------------------------------
B--13----15-17---18-17-15*-----13-----15-17---
G---------------------------------------------
D--10----12-14---15-14-12*-----10-----12-14---
A---------------------------------------------
E---------------------------------------------



E---------------------------------------------
B--18-17-15*----------20*-----18-17-18------17
G---------------------------------------------
D--15-14-12*----------17*-----15-14-15------14
A---------------------------------------------
E---------------------------------------------



E---------------------------------------------
B----14*---15*------20*-----18-17-18------17--
G---------------------------------------------
D----11*---12*------17*-----15-14-15------14--
A---------------------------------------------
E---------------------------------------------



E---------------------------------------------
B--14*---15*----------------------------------
G---------------------------------------------
D--11*---12*----------------------------------
A---------------------------------------------
E---------------------------------------------


Riff 4:

E---------------------------------------------
B---------------------------------------------
G---------------------------------------------
D--7-5-7----------------7-5-7----------------7
A--5-3-5--5-5-5--5-5-5--5-3-5--5-5-5--5-5-5--5
E---------------------------------------------
          pm......pm..         pm.....pm...


E---------------------------------------------
B---------------------------------------------
G---------------------------------------------
D-5-7-----7-5-7-----7-5-7---------------------
A-3-5-5-5-5-3-5-5-5-5-3-5---------------------
E---------------------------------------------
      pm.       pm.

Bridge 6:

E---------------------------------------------
B---------------------------------------------
G---------------------------------------------
D--3-3--3-3--5-5------------------------------
A--1-1--1-1--3-3------------------------------
E---------------------------------------------


Bridge 7:

E---------------------------------------------
B---------------------------------------------
G-10--9--10*------10--9--10*---------10-9-10*-
D---------------------------------------------
A---------------------------------------------
E---------------------------------------------


E---------------------------------------------
B-----------------------10--8-----------------
G-10-9-10*--10-9-10*----------10*------10--9--
D---------------------------------------------
A---------------------------------------------
E---------------------------------------------


E---------------------------------------------
B---------------------------------------------
G10*------10-9-10*--10-9-10*--10-9-10*--------
D---------------------------------------------
A---------------------------------------------
E---------------------------------------------


E---------------------------------------------
B-15--13--15*------15--13--15*------15-13-15*-
G---------------------------------------------
D---------------------------------------------
A---------------------------------------------
E---------------------------------------------


E-----------------------------------------17--
B-15-13-15*--15-13-15*------15--13--15*-------
G---------------------------------------------
D---------------------------------------------
A---------------------------------------------
E---------------------------------------------


E-15--13*------17-15-13-13--12----------------
B-------------------------------15-15---13-15*
G---------------------------------------------
D---------------------------------------------
A---------------------------------------------
E---------------------------------------------


E---------------------------------------------
B---------------------------------------------
G---------------------------------------------
D---------------------------------------------
A---------------------------------------------
E---------------------------------------------


Riff 5:

E---------------------------------------------
B---------------------------------------------
G---------------------------------------------
D--7-5-7----------------7-5-3----------------3
A--5-3-5--5-5-5--5-5-5--5-3-1--1-1-1--1-1-1--1
E---------------------------------------------
          pm......pm..         pm.....pm...


E-------------------------------------------
B-------------------------------------------
G-------------------------------------------
D-3-5----------------5-5-7------------------
A-1-3--3-3 3--3-3-3--3-3-5--5-5-5--5-5-5----
E-------------------------------------------
       pm.....pm...         pm.....pm...


well that's it. If you want the rythym guitar
of the solos just send me a email, for
now I had enough of this tab.     
Добавлено: 03.09.2013
Другие материалы по этой песне:

Страница создана 29.02.2012
http://primanota.ru/bruce-dickinson/darkside-of-aquarius-chords.htm
Привет, Гость.
Предлагаем пройти революционный курс по гитаре.
Подарок от PrimaNota.Ru, забирай!