PrimaNota.ru - самый крупный в мире бесплатный архив песенных текстов, аккордов, табулатур и нот


Bruce Dickinson - Son Of A Gun - текст песни, таба, видео

Регистрация Запомнить меня
Войти через:  Facebook Google Twitter Vk Yandex Mail.ru

Bruce Dickinson - Son Of A Gun - текст песни, таба, видео

Печатать
Просмотров: 261
This file was taken from the " SavatagE & Iron Maiden Israeli Home Page " ,
AddresS : Http://www.geocities.com/SunsetStrip/Towers/2260        .

For MORE NEW NEVER BEFORE SEEN TABS of this bands , check out the place !!!


Author/Artist: Bruce Dickinson
Title: Son Of A Gun
Album: Tatooed  Millionaire
Transcribed by: Stephan E. Tillmann
Email: Wrathchild@gmx.de

|-----------------|-----------------|-----------------|-----------------------
|-----------------|---------0-------|---------0-------|---------0-------------
|---------0-------|-----0-------0---|-----0-------0---|-----0-------0---------
|-----2-------2---|---2---2---2---2-|---4---4---4---4-|---4---4---4---4-------
|---2---2---2---2-|-3---------------|-5---------------|-5---------------------
|-0---------------|-----------------|-----------------|-----------------------

|Riff 1 (6x)

|

|-----------------|-----------------|-----------------|--------14b15b14p12----
|-----------------|-----------------|-----------------|------12---------------
|-----------------|-----------------|-----------------|-----------------------
|-----------------|-----------------|-----------------|-----------------------
|-----------------|-----------------|-----------------|-----------------------
|-----------------|-----------------|-----------------|-----------------------


|-----------------|-----------------|-----------------|-----------------------
|-----------------|---------0-------|---------0-------|---------0-------------
|---------0-------|-----0-------0---|-----0-------0---|-----0-------0---------
|-----2-------2---|---2---2---2---2-|---4---4---4---4-|---4---4---4---4-------
|---2---2---2---2-|-3---------------|-5---------------|-5---------------------
|-0---------------|-----------------|-----------------|-----------------------

|

|

|-----------------|-----------------|-----------------|-----------------------
|15/--------------|-----------------|-----------------|-----------------------
|-----------------|-----------------|-----------------|-----------------------
|-----------------|-----------------|-----------------|-----------------------
|-----------------|-----------------|-----------------|-----------------------
|-----------------|-----------------|-----------------|-----------------------



|-----------------|-----------------|-----------------|-----------------------
|-----------------|---------0-------|---------0-------|---------0-------------
|---------0-------|-----0-------0---|-----0-------0---|-----0-------0---------
|-----2-------2---|---2---2---2---2-|---4---4---4---4-|---4---4---4---4-------
|---2---2---2---2-|-3---------------|-5---------------|-5---------------------
|-0---------------|-----------------|-----------------|-----------------------

|

|

|-----------------|-----------------|-----------------|-----------------------
|-----------------|-----------------|-----------------|-----------------------
|-----------------|-----------------|-----------------|-----------------------
|-----------------|-----------------|-----------------|-----------------------
|-----------------|-----------------|-----------------|-----------------------
|-----------------|-----------------|-----------------|-----------------------



|-----------------|-----------------|-----------------|-----------------------
|-----------------|---------0-------|---------0-------|---------0-------------
|---------0-------|-----0-------0---|-----0-------0---|-----0-------0---------
|-----2-------2---|---2---2---2---2-|---4---4---4---4-|---4---4---4---4-------
|---2---2---2---2-|-3---------------|-5---------------|-5---------------------
|-0---------------|-----------------|-----------------|-----------------------

|

|

|-----------------|-----------17b19r17-14-------------|-----------------------
|-----------------|--------12-------|-----------------|-----------------------
|-----------------|-----------------|-----------------|-----------------------
|-----------------|-----------------|-----------------|-----------------------
|-----------------|-----------------|-----------------|-----------------------
|-----------------|-----------------|-----------------|-----------------------



|-----------------|-----------------|-----------------|-----------------------
|-----------------|---------0-------|---------0-------|---------0-------------
|---------0-------|-----0-------0---|-----0-------0---|-----0-------0---------
|-----2-------2---|---2---2---2---2-|---4---4---4---4-|---4---4---4---4-------
|---2---2---2---2-|-3---------------|-5---------------|-5---------------------
|-0---------------|-----------------|-----------------|-----------------------
|

|

|-----------------|-----------------|-----------------|-----------------------
|-----------------|-----------------|-----------------|-----------------------
|-----------------|-----------------|-----------------|-----------------------
|-----------------|-----------------|-----------------|-----------------------
|-----------------|-----------------|-----------------|-----------------------
|-----------------|-----------------|-----------------|-----------------------



|-----------------|-----------------|-----------------|-----------------------
|-----------------|---------0-------|---------0-------|---------0-------------
|---------0-------|-----0-------0---|-----0-------0---|-----0-------0---------
|-----2-------2---|---2---2---2---2-|---4---4---4---4-|---4---4---4---4-------
|---2---2---2---2-|-3---------------|-5---------------|-5---------------------
|-0---------------|-----------------|-----------------|-----------------------
|

|

|-----------------|12--14-15-15b17r15-14--------------|-----------------------
|---------------12|--12-------------|-----------------|15---------------------
|-----------------|-----------------|-----------------|-----------------------
|-----------------|-----------------|-----------------|-----------------------
|-----------------|-----------------|-----------------|-----------------------
|-----------------|-----------------|-----------------|-----------------------



|-----------------|-----------------|-----------------|-----------------------
|---------3-------|---------5-------|---------7-------|---------7-------------
|-----4-------4---|-----0-------0---|-----0-------0---|-----0-------0---------
|---4---4---4---4-|---4---4---4---4-|---4---4---4---4-|---4---4---4---4-------
|-2---------------|-3---------------|-5---------------|-5---------------------
|-----------------|-----------------|-----------------|-----------------------

|Riff 2

|

|-----------------|-----------------|-----------------|17b19r17-15h17p15p-----
|-----------------|-----------------|-----------------|-----------------------
|-----------------|-----------------|-----------------|-----------------------
|-----------------|-----------------|-----------------|-----------------------
|-----------------|-----------------|-----------------|-----------------------
|-----------------|-----------------|-----------------|-----------------------



|-----------------|-----------------|-----------------|-----------------------
|---------3-------|---------5-------|---------7-------|---------7-------------
|-----4-------4---|-----0-------0---|-----0-------0---|-----0-------0---------
|---4---4---4---4-|---4---4---4---4-|---4---4---4---4-|---4---4---4---4-------
|-2---------------|-3---------------|-5---------------|-5---------------------
|-----------------|-----------------|-----------------|-----------------------
|

|

|14---------------|15---------------|17---------------|-----------------------
|-----------------|-----------------|-----------------|-----------------------
|-----------------|-----------------|-----------------|-----------------------
|-----------------|-----------------|-----------------|-----------------------
|-----------------|-----------------|-----------------|-----------------------
|-----------------|-----------------|-----------------|-----------------------



|------|------------------|-----------------|---------------------|-----------
|------|-----x------------|-----x-----------|-----x---------------|-----x-----
|-12-7-|-7\9-9-9-----12-7-|-7\9-9-9-----5---|-5\7-7-7--------12-7-|-7\9-9-9---
|-12-7-|-7\7-9-9-----12-7-|-7\9-9-9-----5-5-|-5\5-5-7--------12-7-|-7\9-9-9---
|-10-5-|-5\7-7-7-----10-5-|-5\7-7-7-----3-5-|-3\5-5-5--------10-5-|-5\7-7-7---
|------|------------------|---------------3-|---------------------|-----------

|Riff 3

|

|-17\22/19-----------14---|-----------------|-------------15b17-15b17-15-14---
|------|---------------15-|15b17-------17r15|---------------------|--------17-
|------|------------------|-----------------|---------------------|-----------
|------|------------------|-----------------|---------------------|-----------
|------|------------------|-----------------|---------------------|-----------
|------|------------------|-----------------|---------------------|-----------



|------|-----------------------------------------|----------------------------
|------|-------x---------------------------------|-----x----------------------
|-12-7-|-7\9---9---9------------------------12-7-|-7\9-9-9---------5----------
|-12-7-|-7\7---9---9------------------------12-7-|-7\9-9-9---------5-5--------
|-10-5-|-5\7---7---7------------------------10-5-|-5\7-7-7---------3-5--------
|------|-----------------------------------------|-------------------3--------

|

|

|-15---|-------15-12---------15-12--15-----------|------------12--------------
|-15b17|15b17r15---15-15b17r15---15-15b17-15-----|----------\12-15b17r15-12---
|-----------------------------------------14b16rrr14p12-12/-------------------
|------|-----------------------------------------|-----15---------------------
|------|-----------------------------------------|----------------------------
|------|-----------------------------------------|----------------------------



|-------------------------------------|---------------------------------------
|-----x-------------------------------|--------x------------------------------
|-5\7-7-7---------------------12----7-|-7\9----9----9-------------------------
|-5\7-7-7---------------------12----7-|-7\9----9----9-------------------------
|-3\5-5-5---------------------10----5-|-5\7----7----7-------------------------
|-------------------------------------|---------------------------------------

|

|

|-------------------------------------|---------------------------------------
|-------------------------------------|---------------------------------------
|14b15b14/-------------------11\12-11-|12-12b14r14p11\9-----------------------
|-------------------------------------|---------------------------------------
|-------------------------------------|---------------------------------------
|-------------------------------------|---------------------------------12/0--



|----------------|----------------------|----------------|--------------------
|-----x-x--------|-x-x-x----------------|-----x-x--------|--------------------
|-7\9-9-9-9/-----|-7-7-7-7\9-9-9-9/-----|-5\7-7-7-7/-----|-7-7-7-7\9-9-9-9/---
|-7\9-9-9-9/-----|-7-7-7-7\9-9-9-9/-----|-5\7-7-7-7/-----|-7-7-7-7\9-9-9-9/---
|-5\7-7-7-7/-----|-5-5-5-5\7-7-7-7/-----|-3\5-5-5-5/-----|-5-5-5-5\7-7-7-7/---
|----------------|----------------------|----------------|--------------------

 Vers (2x)

|------|------------------|-----------------|---------------------|-----------
|------|-----x------------|-----x-----------|-----x---------------|-----x-----
|-12-7-|-7\9-9-9-----12-7-|-7\9-9-9-----5---|-5\7-7-7--------12-7-|-7\9-9-9---
|-12-7-|-7\7-9-9-----12-7-|-7\9-9-9-----5-5-|-5\5-5-7--------12-7-|-7\9-9-9---
|-10-5-|-5\7-7-7-----10-5-|-5\7-7-7-----3-5-|-3\5-5-5--------10-5-|-5\7-7-7---
|------|------------------|---------------3-|---------------------|-----------

 Chorus (2x)

|----------------|----------------------|----------------|--------------------
|-----x-x--------|-x-x-x----------------|-----x-x--------|--------------------
|-7\9-9-9-9/-----|-7-7-7-7\9-9-9-9/-----|-5\7-7-7-7/-----|-7-7-7-7\9-9-9-9/---
|-7\9-9-9-9/-----|-7-7-7-7\9-9-9-9/-----|-5\7-7-7-7/-----|-7-7-7-7\9-9-9-9/---
|-5\7-7-7-7/-----|-5-5-5-5\7-7-7-7/-----|-3\5-5-5-5/-----|-5-5-5-5\7-7-7-7/---
|----------------|----------------------|----------------|--------------------

 Vers (2x)

-------|------------------|-----------------|---------------------|-----------
-------|-----x------------|-----x-----------|-----x---------------|-----x-----
--12-7-|-7\9-9-9-----12-7-|-7\9-9-9-----5---|-5\7-7-7--------12-7-|-7\9-9-9---
--12-7-|-7\7-9-9-----12-7-|-7\9-9-9-----5-5-|-5\5-5-7--------12-7-|-7\9-9-9---
--10-5-|-5\7-7-7-----10-5-|-5\7-7-7-----3-5-|-3\5-5-5--------10-5-|-5\7-7-7---
-------|------------------|---------------3-|---------------------|-----------

 Chorus (2x)

------------------|-----------------|-----------------|-----------------------
------------------|---------0-------|---------0-------|---------0-------------
----------0-------|-----0-------0---|-----0-------0---|-----0-------0---------
------2-------2---|---2---2---2---2-|---4---4---4---4-|---4---4---4---4-------
----2---2---2---2-|-3---------------|-5---------------|-5---------------------
--0---------------|-----------------|-----------------|-----------------------

 Riff 1 (6x)

------------------|-----------------|-----------------|-----------------------
----------3-------|---------5-------|---------7-------|---------7-------------
------4-------4---|-----0-------0---|-----0-------0---|-----0-------0---------
----4---4---4---4-|---4---4---4---4-|---4---4---4---4-|---4---4---4---4-------
--2---------------|-3---------------|-5---------------|-5---------------------
------------------|-----------------|-----------------|-----------------------

 Riff 2 (2x)

-------|------------------|-----------------|---------------------|-----------
-------|-----x------------|-----x-----------|-----x---------------|-----x-----
--12-7-|-7\9-9-9-----12-7-|-7\9-9-9-----5---|-5\7-7-7--------12-7-|-7\9-9-9---
--12-7-|-7\7-9-9-----12-7-|-7\9-9-9-----5-5-|-5\5-5-7--------12-7-|-7\9-9-9---
--10-5-|-5\7-7-7-----10-5-|-5\7-7-7-----3-5-|-3\5-5-5--------10-5-|-5\7-7-7---
-------|------------------|---------------3-|---------------------|-----------



-------|------------------|-----------------|---------------------|-----------
-------|-----x------------|-----x-----------|-----x---------------|-----x-----
--12-7-|-7\9-9-9-----12-7-|-7\9-9-9-----5---|-5\7-7-7--------12-7-|-7\9-9-9---
--12-7-|-7\7-9-9-----12-7-|-7\9-9-9-----5-5-|-5\5-5-7--------12-7-|-7\9-9-9---
--10-5-|-5\7-7-7-----10-5-|-5\7-7-7-----3-5-|-3\5-5-5--------10-5-|-5\7-7-7---
-------|------------------|---------------3-|---------------------|-----------

 Chorus (2x)

------------------|-----------------|-----------------|-----------------------
------------------|---------0-------|---------0-------|---------0-------------
----------0-------|-----0-------0---|-----0-------0---|-----0-------0---------
------2-------2---|---2---2---2---2-|---4---4---4---4-|---4---4---4---4-------
----2---2---2---2-|-3---------------|-5---------------|-5---------------------
--0---------------|-----------------|-----------------|-----------------------

 Outro (2x)

------------------------------------------------------------------------------
------0-----------------------------------------------------------------------
-----0------------------------------------------------------------------------
----2-------------------------------------------------------------------------
---2--------------------------------------------------------------------------
--0---------------------------------------------------------------------------
Добавлено: 25.04.2012
Другие материалы по этой песне:

Страница создана 25.04.2012
http://primanota.ru/bruce-dickinson/son-of-a-gun-chords.htm
Привет, Гость.
Предлагаем пройти революционный курс по гитаре.
Подарок от PrimaNota.Ru, забирай!