PrimaNota.ru - самый крупный в мире бесплатный архив песенных текстов, аккордов, табулатур и нот


Bruce Dickinson - Headswitch - текст песни, таба, видео

Регистрация Запомнить меня
Войти через:  Facebook Google Twitter Vk Yandex Mail.ru

Bruce Dickinson - Headswitch - текст песни, таба, видео

Печатать
Просмотров: 158
this is my second tab (after danzig "five finger crawl")

intro and whole song
riff 1
e)---------------------------------|
b)---------------------------------|
g)---------------------------------|
d)---------------------------------|
a)-3--5--------3--5--------3h5-----|
d)-------3--0--------3--0------3p0-| /repeat

chorus and whole song
riff 2
e)--------|
b)--------|
g)--------|
d)--------|
a)-353-5--|
d)-353-5--| repeat enough and start from the beginning and so on...

after riff 1 and before riff 2
e)-----------------|
g)----------5/7~~--|
b)-----------------|
d)-----------------|
a)-3/5-------------|
d)-----3p0---------|

before solo
e)----------------------|
g)----------------------|
b)----------------------|
d)----------------------|
a)--0--/1--/2--/3--/4---|
d)--0--/1--/2--/3--/4---|

and the end
e)----------|
b)----------|
g)----------|
d)----------|
a)---5------|
d)-3---3-5--|
Добавлено: 28.07.2012
Другие материалы по этой песне:

Страница создана 06.04.2012
http://primanota.ru/bruce-dickinson/headswitch-chords.htm
Привет, Гость.
Предлагаем пройти революционный курс по гитаре.
Подарок от PrimaNota.Ru, забирай!