PrimaNota.ru - самый крупный в мире бесплатный архив песенных текстов, аккордов, табулатур и нот


Breaking Benjamin - Dark Before Dawn (album) - таба, видео

Регистрация Запомнить меня
Войти через:  Facebook Google Twitter Vk Yandex Mail.ru

Breaking Benjamin - Dark Before Dawn (album) - таба, видео

Печатать
Просмотров: 312
Dark Before Dawn-Breaking Benjamin

Tabbed by: SoarStaraptor
Breaking Benjamin - Dark
Tuning: Drop A#

Guitar 2: (0:08) Clean
C--------------------------------------------------------------------------------|
G--------------------------------------------------------------------------------|
D#-------------------------------------------------------------------------------|
A#-------------------------------------------------------------------------------|
F--10---12---12---12---10---12---13---13---10---12---12---12---12---12---12---12-|
A#----0----0----0----0----0----0----0----0----0----0----0----0----0----0----0----|


Guitar 2: (0:16) Clean
C-----------------------------------------------------------------------------|
G-----------------------------------------------------------------------------|
D-----------------------------------------------------------------------------|
A#----------------------------------------------------------------------------|
F----10---12---12---12---10---12---13---13---10---9---9---9---9---9---9---9---|
A#-0----0----0----0----0----0----0----0----0----0---0---0---0---0---0---0---0-|


Guitar 2: (0:25) Clean
C--------------------------------------------------------------------------------|
G--------------------------------------------------------------------------------|
D#-------------------------------------------------------------------------------|
A#-------------------------------------------------------------------------------|
F--10---12---12---12---10---12---13---13---10---12---12---12---12---12---12---12-|
A#----0----0----0----0----0----0----0----0----0----0----0----0----0----0----0----|

Guitar 2: (0:33)
C-----------------------------------------------------------------------------|
G-----------------------------------------------------------------------------|
D-----------------------------------------------------------------------------|
A#----------------------------------------------------------------------------|
F----10---12---12---12---10---12---13---13---10---9---9---9---9---9---9---9---|
A#-0----0----0----0----0----0----0----0----0----0---0---0---0---0---0---0---0-|


Guitar 1: (0:41) DISTORTION (Fuzz)
C-----------------------------------------------------------------------------|
G-----------------------------------------------------------------------------|
D#----------------------------------------------------------------------------|
A#----------------------------------------------------------------------------|
F-----------------------------------------------------------------------------|
A#-0-0-x---------------0-0-x-------0-x-----0-0-x------------0-0-x-------0-x---|

Guitar 2: (0:41)
C-----------------------------------------------------------------------------|
G-----------------------------------------------------------------------------|
D-----------------------------------------------------------------------------|
A#----------------------------------------------------------------------------|
F----10---12---12---12---10---12---13---13---10---9---9---9---9---9---9---9---|
A#-0----0----0----0----0----0----0----0----0----0---0---0---0---0---0---0---0-|

Guitar 1: (0:49)
C-----------------------------------------------------------------------------|
G-----------------------------------------------------------------------------|
D#----------------------------------------------------------------------------|
A#----------------------------------------------------------------------------|
F-----------------------------------------------------------------------------|
A#-0-0-x---------------0-0-x-------0-x-----0-0-x------------0-0-x-------0-x---|

Guitar 2: (0:49)
C--------------------------------------------------------------------------------|
G--------------------------------------------------------------------------------|
D#-------------------------------------------------------------------------------|
A#-------------------------------------------------------------------------------|
F--10---12---12---12---10---12---13---13---10---12---12---12---12---12---12---12-|
A#----0----0----0----0----0----0----0----0----0----0----0----0----0----0----0----|


Guitar 1: (0:58)
C-----------------------------------------------------------------------------|
G-----------------------------------------------------------------------------|
D#----------------------------------------------------------------------------|
A#----------------------------------------------------------------------------|
F-----------------------------------------------------------------------------|
A#-0-0-x------0-x------0-0-x-------0-x-----0-0-x------------0-0-X-------0-x---|

Guitar 2: (0:58)
C-----------------------------------------------------------------------------|
G-----------------------------------------------------------------------------|
D-----------------------------------------------------------------------------|
A#----------------------------------------------------------------------------|
F----10---12---12---12---10---12---13---13---10---9---9---9---9---9---9---9---|
A#-0----0----0----0----0----0----0----0----0----0---0---0---0---0---0---0---0-|


CHORUS:
Guitar 1: (1:06) DISTORTION
C--------------------------------------------------------------------|
G--------------------------------------------------------------------|
D#-------------------------------------------------------------------|
A#-8---8---8---8---8---8---8---8-----0---0---0---0---0---0---0---0---|
F--8---8---8---8---8---8---8---8-----0---0---0---0---0---0---0---0---|
A#-8---8---8---8---8---8---8---8-----0---0---0---0---0---0---0---0---|

Guitar 2: (1:06) Clean
C--10--10------------------12--12----13----------------------12--12-----|
G-----------------------------------------------------------------------|
D#----------------------------------------------------------------------|
A#----------------------------------------------------------------------|
F-----------------------------------------------------------------------|
A#----------------------------------------------------------------------|

Guitar 1: (1:15)
C----------------------------------------------------------------------|
G----------------------------------------------------------------------|
D#---------------------------------------------------------------------|
A#-8---8---8---8---8---8---8---8-----0---0---0---0---0---0---0---0-----|
F--8---8---8---8---8---8---8---8-----0---0---0---0---0---0---0---0-----|
A#-8---8---8---8---8---8---8---8-----0---0---0---0---0---0---0---0-----|


Guitar 2: (1:15)
C--10--10------------------12--12----13----------------------12--12-----|
G-----------------------------------------------------------------------|
D#----------------------------------------------------------------------|
A#----------------------------------------------------------------------|
F-----------------------------------------------------------------------|
A#----------------------------------------------------------------------|

Guitar 1: (1:24)
C----------------------------------------------------------------------|
G----------------------------------------------------------------------|
D#---------------------------------------------------------------------|
A#-8---8---8---8---8---8---8---8-----5---5---5---5---5---5---5---5--x--|
F--8---8---8---8---8---8---8---8-----5---5---5---5---5---5---5---5--x--|
A#-8---8---8---8---8---8---8---8-----5---5---5---5---5---5---5---5--x--|

Guitar 2: (1:24)
C--10--10----------------------------15--15-----------------------------|
G-----------------------------------------------------------------------|
D#----------------------------------------------------------------------|
A#----------------------------------------------------------------------|
F-----------------------------------------------------------------------|
A#----------------------------------------------------------------------|


END: PLAY TWICE
Guitar 2: (1:31) Clean
C--------------------------------------------------------------------------------|
G--------------------------------------------------------------------------------|
D#-------------------------------------------------------------------------------|
A#-------------------------------------------------------------------------------|
F--10---12---12---12---10---12---13---13---10---12---12---12---12---12---12---12-|
A#----0----0----0----0----0----0----0----0----0----0----0----0----0----0----0----|

Guitar 2: (1:40) Clean
C-----------------------------------------------------------------------------|
G-----------------------------------------------------------------------------|
D-----------------------------------------------------------------------------|
A#----------------------------------------------------------------------------|
F----10---12---12---12---10---12---13---13---10---9---9---9---9---9---9---9---|
A#-0----0----0----0----0----0----0----0----0----0---0---0---0---0---0---0---0-|

Breaking Benjamin: Failure
Transcribed by: mysticguitar77
Tuning: Drop A# (A#,F,A#,D#,G,C)

Riff 1 (Guitar 1 - clean, let notes ring out)
 C|-----------------------------------|
 G|-----------------------------------|
D#|-------5----------------5----------|
A#|-----0-------0--------0-------0----| x2.5
 F|---8-------8--------8-------8------|
A#|-0-------0--------8-------8--------|

Riff 1 (Guitar 2 - clean w/ slight chorus)
 C|--------12--13------------------12--13--17-----|
 G|-15-------------15-------15--------------------|
D#|-----------------------------------------------|
A#|-----------------------------------------------|
 F|-----------------------------------------------|
A#|-----------------------------------------------|

 C|----------12----13----13----------12-b13-|
 G|-15----------------------15--------------|
D#|----14-------14----14-------14-----------|
A#|-------12----------------------12--------|
 F|-----------------------------------------|
A#|-----------------------------------------|

Riff 1 (Guitar 3 - light distortion)
 C|----------------------------------------------------------------------------------|
 G|----------------------------------------------------------------------------------|
D#|----------------------------------------------------------------------------------|
A#|--------------------------------------------------------------------------x-x-x-x-|
 F|---12---------12---13---13-12----------------12---------12---13---13-12---x-x-x-x-|
A#|-0----13-12-0----0----0-------0-10-0-10-13-0----13-12-0----0----0-------0-x-x-x-x-|

Riff 2 (Guitar 1 - full distortion)
 C|------------------------------------------------------------------------------------|
 G|------------------------------------------------------------------------------------|
D#|------------------------------------------------------------------------14-14-14-14-|
A#|------------------------------------------------------------------------13-13-13-13-|
 F|---9---------12---13---13-12----------------9---------12---13---13-12---12-12-12-12-|
A#|-0---13-12-0----0----0-------0-10-0-10-13-0---13-12-0----0----0-------0-------------|

 C|--------------------------------------------------------------------------------|
 G|--------------------------------------------------------------------------------|
D#|--------------------------------------------------------------------------------|
A#|--------------------------------------------------------------------------------|
 F|---9---------12---13---13-12----------------9---------12---13---13-12-------3h6-|
A#|-0---13-12-0----0----0-------0-10-0-10-13-0---13-12-0----0----0-------0-6\5-----|

Riff 2 (Guitar 2 - distortion w/ slight chorus and delay)
 C|----------12----13----13----------12-b13r12----|
 G|-15----------------------15-----------------13-|
D#|----14-------14----14-------14-----------------|
A#|-------12----------------------12--------------| x2
 F|-----------------------------------------------|
A#|-----------------------------------------------|

 C|-----------|
 G|-15~-------|
D#|-----------|
A#|-----------|
 F|-----------|
A#|-----------|

Riff 3 (both guitars)   "Life will come our way..."
 C|--------------------------------------------------------------------------------------------------------|
 G|----------------------------------------------10-10-10--10-10--10-10-10-10--------8--8-8--8-8-8-8-------|
D#|----------------------------------------------10-10-10--10-10--10-10-10-10--------7--7-7--7-7-7-7-------|
A#|---------------------------------------8--8-8-8--8--8---8--8---8--8--8--8--5--5-5-5--5-5--5-5-5-5/8-8-8-|
 F|---------------------------------------8--8-8-8--8--8---8--8---8--8--8--8--5--5-5-5--5-5--5-5-5-5/8-8-8-|
A#|-00000-1-0-0-000-0--00000-1-0-0-000-0--8--8-8-8--8--8---8--8---8--8--8--8--5--5-5-5--5-5--5-5-5-5/8-8-8-|
    ***** * * * *** *  ***** * * * *** *

 C|--------------------------------------------------------------------------------------------------------|
 G|----------------------------------------------10-10-10--10-10--10-10-10-10--------8--8-8--8-8-8---------|
D#|----------------------------------------------10-10-10--10-10--10-10-10-10--------7--7-7--7-7-7---------|
A#|---------------------------------------8--8-8-8--8--8---8--8---8--8--8--8--5--5-5-5--5-5--5-5-5-7-3-0-3-|
 F|---------------------------------------8--8-8-8--8--8---8--8---8--8--8--8--5--5-5-5--5-5--5-5-5-7-3-0-3-|
A#|-00000-1-0-0-000-0--00000-1-0-0-000-0--8--8-8-8--8--8---8--8---8--8--8--8--5--5-5-5--5-5--5-5-5-7-3-0-3-|
    ***** * * * *** *  ***** * * * *** *

Riff 4 (both guitars)   "Look for the light..."
 C|------------------------------------------------------------------|
 G|------------------------------------------------------------------|
D#|------------------14-14-14-14-------------------------17-17-17-17-|
A#|-8-8-8--8--8--8-8-x--x--x--x--10-10-10--10--10--10-10-x--x--x--x--|
 F|-8-8-8--8--8--8-8-12-12-12-12-10-10-10--10--10--10-10-15-15-15-15-|
A#|-8-8-8--8--8--8-8-------------10-10-10--10--10--10-10-------------|

Riff 5 (Guitar 1)   "Tired of feeling lost..."
 C|-----------------------------------------------------|
 G|-------10-10---------------------11-11---------------|
D#|-------x--x----------------------x--x----------------|
A#|-0-0-0-7--7--0--0-0--0-0-0-8-8-8-8--8--8--8-8--8-8-8-|
 F|-0-0-0-0--0--0--0-0--0-0-0-8-8-8-8--8--8--8-8--8-8-8-|
A#|-0-0-0-0--0--0--0-0--0-0-0-8-8-8-8--8--8--8-8--8-8-8-|

 C|-----------------------------------------------------------------|
 G|-----------------------------------------------------------------|
D#|-----------------------------------------------------------------|
A#|-7--7-7-7--7-7--7-7--7-7-7-7-10--10-10-10--10-10--10-10--7-7-7-7-|
 F|-3--3-3-3--3-3--3-3--3-3-3-3-10--10-10-10--10-10--10-10--7-7-7-7-|
A#|-3--3-3-3--3-3--3-3--3-3-3-3-10--10-10-10--10-10--10-10--7-7-7-7-|

                                    "Failure..."
 C|--------------------------------------------------------------|
 G|--------------------------------------------------------------|
D#|--------------------------------------------------------------|
A#|-8-8-8-8-8-8-8-8-8-8-8-8-8-8-8-8-8--8-8-8--8-8-8-8-8--8-8-8-8-|
 F|-8-8-8-8-8-8-8-8-8-8-8-8-8-8-8-8-7--7-7-7--7-7-7-8-8--8-8-8-8-|
A#|-8-8-8-8-8-8-8-8-8-8-8-8-8-8-8-8-8--8-8-8--8-8-8-8-8--8-8-8-8-|

Riff 5 (Guitar 2, rhythm follows Guitar 1)
 C|-------------------------------------------------------------------------------------|
 G|-------------------------------------------------------------------------------------|
D#|-14--14-14-14--14-14--14-14-14-14\12-12-12-15--15-15-15--15-15--15-15-15-15/17-17-17-|
A#|-x---x--x--x---x--x---x--x--x--x--x--x--x--x---x--x--x---x--x---x--x--x--x--x--x--x--|
 F|-12--12-12-12--12-12--12-12-12-12\10-10-10-13--13-13-13--13-13--13-13-13-13/15-15-15-|
A#|-------------------------------------------------------------------------------------|

 C|-----------------------------------------------------------------------------------|
 G|-----------------------------------------------------------------------------------|
D#|-14--14-14-14--14-14--14-14-14-14/15-15-15-12-12-12-12-5-5-5-5-17-17-17-17-9-9-9-9-|
A#|-x---x--x--x---x--x---x--x--x--x--x--x--x--x--x--x--x--x-x-x-x-x--x--x--x--x-x-x-x-|
 F|-12--12-12-12--12-12--12-12-12-12/13-13-13-10-10-10-10-3-3-3-3-15-15-15-15-7-7-7-7-|
A#|-----------------------------------------------------------------------------------|

                                            "Failure..."
 C|-13--13-13-13--13-13--13-13--13-13-13-13-12--12-12-12--12-12-12-13-13--13-13-13-13-|
 G|-x---x--x--x---x--x---x--x---x--x--x--x--x---x--x--x---x--x--x--x--x---x--x--x--x--|
D#|-10--10-10-10--10-10--10-10--10-10-10-10-9---9--9--9---9--9--9--10-10--10-10-10-10-|
A#|-----------------------------------------------------------------------------------|
 F|-----------------------------------------------------------------------------------|
A#|-----------------------------------------------------------------------------------|

Fill 1 (Guitar 1, other guitar plays Riff 2 underneath just once)
 C|------------------------------------------------------------------------------|
 G|------------------------------------------------------------------------------|
D#|------------------------------------------------------------------------------|
A#|------------------------------------------------------------------------6-5-1-|
 F|---9---------12---13---13-12----------------9---------12---13---13-12---6-5-1-|
A#|-0---13-12-0----0----0-------0-10-0-10-13-0---13-12-0----0----0-------0-6-5-1-|

Play Riff 3 x1 (both guitars, 2nd half of the riff only)
Play Riff 4 x1 (both guitars, omit the last set of octave chords and replace with a rest)

Riff 6 (Guitar 1)   "Tired of feeling lost..."
 C|-----------------------------------------------------|
 G|-------10-10---------------------11-11---------------|
D#|-------x--x----------------------x--x----------------|
A#|-0-0-0-7--7--0--0-0--0-0-0-8-8-8-8--8--8--8-8--8-8-8-|
 F|-0-0-0-0--0--0--0-0--0-0-0-8-8-8-8--8--8--8-8--8-8-8-|
A#|-0-0-0-0--0--0--0-0--0-0-0-8-8-8-8--8--8--8-8--8-8-8-|

 C|--------------------------------------------------------------------|
 G|--------------------------------------------------------------------|
D#|--------------------------------------------------------------------|
A#|-7--7-7-7--7-7--7-7--7-7-7-7-10--10-10-10--10-10--10-10-10-10\8-8-8-|
 F|-3--3-3-3--3-3--3-3--3-3-3-3-10--10-10-10--10-10--10-10-10-10\8-8-8-|
A#|-3--3-3-3--3-3--3-3--3-3-3-3-10--10-10-10--10-10--10-10-10-10\8-8-8-|

 C|-----------------------------------------------------|
 G|-------10-10---------------------11-11---------------|
D#|-------x--x----------------------x--x----------------|
A#|-0-0-0-7--7--0--0-0--0-0-0-8-8-8-8--8--8--8-8--8-8-8-|
 F|-0-0-0-0--0--0--0-0--0-0-0-8-8-8-8--8--8--8-8--8-8-8-|
A#|-0-0-0-0--0--0--0-0--0-0-0-8-8-8-8--8--8--8-8--8-8-8-|

 C|-----------------------------------------------------------------|
 G|-----------------------------------------------------------------|
D#|-----------------------------------------------------------------|
A#|-7--7-7-7--7-7--7-7--7-7-7-7-10--10-10-10--10-10--10-10--7-7-7-7-|
 F|-3--3-3-3--3-3--3-3--3-3-3-3-10--10-10-10--10-10--10-10--7-7-7-7-|
A#|-3--3-3-3--3-3--3-3--3-3-3-3-10--10-10-10--10-10--10-10--7-7-7-7-|

                                    "Failure..."
 C|--------------------------------------------------------------|
 G|--------------------------------------------------------------|
D#|--------------------------------------------------------------|
A#|-8-8-8-8-8-8-8-8-8-8-8-8-8-8-8-8-8--8-8-8--8-8-8-8-8--8-8-8-8-|
 F|-8-8-8-8-8-8-8-8-8-8-8-8-8-8-8-8-7--7-7-7--7-7-7-8-8--8-8-8-8-|
A#|-8-8-8-8-8-8-8-8-8-8-8-8-8-8-8-8-8--8-8-8--8-8-8-8-8--8-8-8-8-|

Riff 6 (Guitar 2)
 C|-------------------------------------------------------------------------------------|
 G|-------------------------------------------------------------------------------------|
D#|-14--14-14-14--14-14--14-14-14-14\12-12-12-15--15-15-15--15-15--15-15-15-15/17-17-17-|
A#|-x---x--x--x---x--x---x--x--x--x--x--x--x--x---x--x--x---x--x---x--x--x--x--x--x--x--|
 F|-12--12-12-12--12-12--12-12-12-12\10-10-10-13--13-13-13--13-13--13-13-13-13/15-15-15-|
A#|-------------------------------------------------------------------------------------|

 C|-----------------------------------------------------------------------------------|
 G|-----------------------------------------------------------------------------------|
D#|-14--14-14-14--14-14--14-14-14-14/15-15-15-12-12-12-12-5-5-5-5-9-9-9-9-10-10-10-10-|
A#|-x---x--x--x---x--x---x--x--x--x--x--x--x--x--x--x--x--x-x-x-x-x-x-x-x-x--x--x--x--|
 F|-12--12-12-12--12-12--12-12-12-12/13-13-13-10-10-10-10-3-3-3-3-7-7-7-7-8--8--8--8--|
A#|-----------------------------------------------------------------------------------|

 C|-------------------------------------------------------------------------------------|
 G|-------------------------------------------------------------------------------------|
D#|-14--14-14-14--14-14--14-14-14-14\12-12/17-15--15-15-15--15-15--15-15-15-15/17-17-17-|
A#|-x---x--x--x---x--x---x--x--x--x--x--x--x--x---x--x--x---x--x---x--x--x--x--x--x--x--|
 F|-12--12-12-12--12-12--12-12-12-12\10-10/15-13--13-13-13--13-13--13-13-13-13/15-15-15-|
A#|-------------------------------------------------------------------------------------|

 C|-----------------------------------------------------------------------------------|
 G|-----------------------------------------------------------------------------------|
D#|-14--14-14-14--14-14--14-14-14-14/15-15-15-12-12-12-12-5-5-5-5-17-17-17-17-9-9-9-9-|
A#|-x---x--x--x---x--x---x--x--x--x--x--x--x--x--x--x--x--x-x-x-x-x--x--x--x--x-x-x-x-|
 F|-12--12-12-12--12-12--12-12-12-12/13-13-13-10-10-10-10-3-3-3-3-15-15-15-15-7-7-7-7-|
A#|-----------------------------------------------------------------------------------|

                                            "Failure..."
 C|-13--13-13-13--13-13--13-13--13-13-13-13-12--12-12-12--12-12-12-13-13--13-13-13-13-|
 G|-x---x--x--x---x--x---x--x---x--x--x--x--x---x--x--x---x--x--x--x--x---x--x--x--x--|
D#|-10--10-10-10--10-10--10-10--10-10-10-10-9---9--9--9---9--9--9--10-10--10-10-10-10-|
A#|-----------------------------------------------------------------------------------|
 F|-----------------------------------------------------------------------------------|
A#|-----------------------------------------------------------------------------------|

Fill 2 (both guitars)
 C|--------------------------------|
 G|--------------------------------|
D#|--------------------------------|
A#|--------------------------------|
 F|-9--10-9------------------------|
A#|-0--0--0--0--0--x-x-0--0-0-1/12-|

Riff 7 (Guitar 1)
 C|------------------------------------------------1~-------------------------------------------------|
 G|------------------------------------------------3~-------------------------------------------------|
D#|------------------------------------------------2~-------------------------------------------------|
A#|------------------------------------------------0~-------------------------------------------------|
 F|-------------------------0-3--------------------0~--------------------------0-3--------------------|
A#|-0-1-0--0--0--x-x-0--4-1-----0-1-0--0--0--x-x-0-0~--0-1-0--0--0--x-x-0--4-1-----0-1-0--0--0--x-x-0-|

Riff 7 (Guitar 2, lead w/ wah)   ' = tremolo pick
 C|-------13-------13----------------|
 G|-------x--------x-----------------|
D#|-14'---10--15'--10--14'--12'--14'-|
A#|-x---------x--------x----x----x---|
 F|-12'-------13'------12'--10'--12'-|
A#|----------------------------------|

Riff 8 (Guitar 1)   "Tired of feeling lost..."
 C|-----------------------------------------------------|
 G|-------10-10---------------------11-11---------------|
D#|-------x--x----------------------x--x----------------|
A#|-0-0-0-7--7--0--0-0--0-0-0-8-8-8-8--8--8--8-8--8-8-8-|
 F|-0-0-0-0--0--0--0-0--0-0-0-8-8-8-8--8--8--8-8--8-8-8-|
A#|-0-0-0-0--0--0--0-0--0-0-0-8-8-8-8--8--8--8-8--8-8-8-|

 C|-----------------------------------------------------------|
 G|-----------------------------------------------------------|
D#|-----------------------------------------------------------|
A#|-7--7-7-7--7-7--7-7--7-7-7-7-10-10-10-10--10-10-10-10--x-8-|
 F|-3--3-3-3--3-3--3-3--3-3-3-3-10-10-10-10--10-10-10-10--x-8-|
A#|-3--3-3-3--3-3--3-3--3-3-3-3-10-10-10-10--10-10-10-10--x-8-|

 C|-----------------------------------------------------|
 G|-------10-10---------------------11-11---------------|
D#|-------x--x----------------------x--x----------------|
A#|-0-0-0-7--7--0--0-0--0-0-0-8-8-8-8--8--8--8-8--8-8-8-|
 F|-0-0-0-0--0--0--0-0--0-0-0-8-8-8-8--8--8--8-8--8-8-8-|
A#|-0-0-0-0--0--0--0-0--0-0-0-8-8-8-8--8--8--8-8--8-8-8-|

 C|-------------------------------------------------------------------|
 G|-------------------------------------------------------------------|
D#|-------------------------------------------------------------------|
A#|-7--7-7-7--7-7--7-7--7-7-7-7-10--10-10-10--10-10--10-10-10-7-3-0-3-|
 F|-3--3-3-3--3-3--3-3--3-3-3-3-10--10-10-10--10-10--10-10-10-7-3-0-3-|
A#|-3--3-3-3--3-3--3-3--3-3-3-3-10--10-10-10--10-10--10-10-10-7-3-0-3-|

        "We bury the sunlight..."
 C|-----------------------------------------------------|
 G|-------10-10---------------------11-11---------------|
D#|-------x--x----------------------x--x----------------|
A#|-0-0-0-7--7--0--0-0--0-0-0-8-8-8-8--8--8--8-8--8-8-8-|
 F|-0-0-0-0--0--0--0-0--0-0-0-8-8-8-8--8--8--8-8--8-8-8-|
A#|-0-0-0-0--0--0--0-0--0-0-0-8-8-8-8--8--8--8-8--8-8-8-|

 C|-------------------------------------------------------------------|
 G|-------------------------------------------------------------------|
D#|-------------------------------------------------------------------|
A#|-7--7-7-7--7-7--7-7--7-7-7-7-10--10-10-10--10-10--10-10-10-8-7-8-7-|
 F|-3--3-3-3--3-3--3-3--3-3-3-3-10--10-10-10--10-10--10-10-10-8-7-8-7-|
A#|-3--3-3-3--3-3--3-3--3-3-3-3-10--10-10-10--10-10--10-10-10-8-7-8-7-|

        "We bury the sunlight..."
 C|-----------------------------------------------------|
 G|-------10-10---------------------11-11---------------|
D#|-------x--x----------------------x--x----------------|
A#|-0-0-0-7--7--0--0-0--0-0-0-8-8-8-8--8--8--8-8--8-8-8-|
 F|-0-0-0-0--0--0--0-0--0-0-0-8-8-8-8--8--8--8-8--8-8-8-|
A#|-0-0-0-0--0--0--0-0--0-0-0-8-8-8-8--8--8--8-8--8-8-8-|

 C|-----------------------------------------------------------------|
 G|-----------------------------------------------------------------|
D#|-----------------------------------------------------------------|
A#|-7--7-7-7--7-7--7-7--7-7-7-7-10--10-10-10--10-10--10-10--7-7-7-7-|
 F|-3--3-3-3--3-3--3-3--3-3-3-3-10--10-10-10--10-10--10-10--7-7-7-7-|
A#|-3--3-3-3--3-3--3-3--3-3-3-3-10--10-10-10--10-10--10-10--7-7-7-7-|

                                    "Failure..."
 C|--------------------------------------------------------------|
 G|--------------------------------------------------------------|
D#|--------------------------------------------------------------|
A#|-8-8-8-8-8-8-8-8-8-8-8-8-8-8-8-8-8--8-8-8--8-8-8-8-8--8-8-8-8-|
 F|-8-8-8-8-8-8-8-8-8-8-8-8-8-8-8-8-7--7-7-7--7-7-7-8-8--8-8-8-8-|
A#|-8-8-8-8-8-8-8-8-8-8-8-8-8-8-8-8-8--8-8-8--8-8-8-8-8--8-8-8-8-|

Riff 8 (Guitar 2)
 C|-------------------------------------------------------------------------------------|
 G|-------------------------------------------------------------------------------------|
D#|-14--14-14-14--14-14--14-14-14-14\12-12-12-15--15-15-15--15-15--15-15-15-15/17-17-17-|
A#|-x---x--x--x---x--x---x--x--x--x--x--x--x--x---x--x--x---x--x---x--x--x--x--x--x--x--|
 F|-12--12-12-12--12-12--12-12-12-12\10-10-10-13--13-13-13--13-13--13-13-13-13/15-15-15-|
A#|-------------------------------------------------------------------------------------|

 C|--------------------------------------------------------------------------|
 G|--------------------------------------------------------------------------|
D#|-14--14-14-14--14-14--14-14-14-14/15-15-15-12-12-12-12--12-12-12-12----15-|
A#|-x---x--x--x---x--x---x--x--x--x--x--x--x--x--x--x--x---x--x--x--x-----x--|
 F|-12--12-12-12--12-12--12-12-12-12/13-13-13-10-10-10-10--10-10-10-10--x-13-|
A#|---------------------------------------------------------------------x----|

 C|-------------------------------------------------------------------------------------|
 G|-------------------------------------------------------------------------------------|
D#|-14--14-14-14--14-14--14-14-14-14\12-12/17-15--15-15-15--15-15--15-15-15-15/17-17-17-|
A#|-x---x--x--x---x--x---x--x--x--x--x--x--x--x---x--x--x---x--x---x--x--x--x--x--x--x--|
 F|-12--12-12-12--12-12--12-12-12-12\10-10/15-13--13-13-13--13-13--13-13-13-13/15-15-15-|
A#|-------------------------------------------------------------------------------------|

 C|-----------------------------------------------------------------------------------|
 G|-----------------------------------------------------------------------------------|
D#|-14--14-14-14--14-14--14-14-14-14/15-15-15-12-12-12-12-5-5-5-5-17-17-17-17-9-9-9-9-|
A#|-x---x--x--x---x--x---x--x--x--x--x--x--x--x--x--x--x--x-x-x-x-x--x--x--x--x-x-x-x-|
 F|-12--12-12-12--12-12--12-12-12-12/13-13-13-10-10-10-10-3-3-3-3-15-15-15-15-7-7-7-7-|
A#|-----------------------------------------------------------------------------------|
 
              "We bury the sunlight..."
 C|-------------------------------------------------------------------------------------|
 G|-------------------------------------------------------------------------------------|
D#|-14--14-14-14--14-14--14-14-14-14\12-12/17-15--15-15-15--15-15--15-15-15-15/17-17-17-|
A#|-x---x--x--x---x--x---x--x--x--x--x--x--x--x---x--x--x---x--x---x--x--x--x--x--x--x--|
 F|-12--12-12-12--12-12--12-12-12-12\10-10/15-13--13-13-13--13-13--13-13-13-13/15-15-15-|
A#|-------------------------------------------------------------------------------------|

 C|---------------------------------------------------------------------------------|
 G|---------------------------------------------------------------------------------|
D#|-14--14-14-14--14-14--14-14-14-14/15-15-15-12-12-12-12-10-10-9-9-9-9-10-10-10-10-|
A#|-x---x--x--x---x--x---x--x--x--x--x--x--x--x--x--x--x--x--x--x-x-x-x-x--x--x--x--|
 F|-12--12-12-12--12-12--12-12-12-12/13-13-13-10-10-10-10-8--8--7-7-7-7-8--8--8--8--|
A#|---------------------------------------------------------------------------------|

 C|-------------------------------------------------------------------------------------|
 G|-------------------------------------------------------------------------------------|
D#|-14--14-14-14--14-14--14-14-14-14\12-12/17-15--15-15-15--15-15--15-15-15-15/17-17-17-|
A#|-x---x--x--x---x--x---x--x--x--x--x--x--x--x---x--x--x---x--x---x--x--x--x--x--x--x--|
 F|-12--12-12-12--12-12--12-12-12-12\10-10/15-13--13-13-13--13-13--13-13-13-13/15-15-15-|
A#|-------------------------------------------------------------------------------------|

 C|---------------------------------------------------------------------------------------|
 G|---------------------------------------------------------------------------------------|
D#|-14--14-14-14--14-14--14-14-14-14/15-15-15-12-12-12-12-10-10-10-10-17-17-17-17-9-9-9-9-|
A#|-x---x--x--x---x--x---x--x--x--x--x--x--x--x--x--x--x--x--x--x--x--x--x--x--x--x-x-x-x-|
 F|-12--12-12-12--12-12--12-12-12-12/13-13-13-10-10-10-10-8--8--8--8--15-15-15-15-7-7-7-7-|
A#|---------------------------------------------------------------------------------------|

                                           "Failure..."
 C|-13--13-13-13--13-13--13-13--13-13-13-13-12--12-12-12--12-12-12-13-13--13-13-13-13-|
 G|-x---x--x--x---x--x---x--x---x--x--x--x--x---x--x--x---x--x--x--x--x---x--x--x--x--|
D#|-10--10-10-10--10-10--10-10--10-10-10-10-9---9--9--9---9--9--9--10-10--10-10-10-10-|
A#|-----------------------------------------------------------------------------------|
 F|-----------------------------------------------------------------------------------|
A#|-----------------------------------------------------------------------------------|

Riff 9 (Guitar 1)
 C|-----------------------------------------------------|
 G|-----------------------------------------------------|
D#|-----------------------------------------------------|
A#|------------------------------------------------0--0-|
 F|---9---------12---13---13-12--------------00000-0--0-|
A#|-0---13-12-0----0----0-------0-10-0-10-13-00000-0--0-|
                                             ****

Guitar 2 plays Riff 2 once underneath


Tabbed by: SoarStaraptor
Breaking Benjamin - Angels Fall 'Tab'
Tuning: Drop C


INTRO: (0:10)
Guitar 1 & 2
D-------------------------------------------------------------------------|
A-----------7-7-7---------7-7-7-----------------7-7-7---------7-7-7-------|
F-------------------------------------------------------------------------|
C----------(4-4-4)-------(4-4-4)---------------(4-4-4)-------(4-4-4)------|
G---4---4-x-------4---4-x-------4h5p4p0-4---4-x-------4---4-x-------4/7---|
C---4---4-x-------4---4-x-------4h5p4p0-4---4-x-------4---4-x-------4/7---|

Guitar 1 (0:15)
D-------------------------------------|
A-------------------------------------|
F-------------------------------------|
C--(4)---(6)---(7)---(6)---(7)--/-7---|
G---0-----0-----0-----2-----2---/-7---|
C---0-----0-----0-----2-----2---/-7---|

Guitar 2 (0:15)
D-------------------------------------|
A-------------------------------------|
F---11----13----14----13----14----13--|
C---x-----x-----x-----x-----x-----x---|
G---9-----11----12----11----12----11--|
C-------------------------------------|

Guitar 1 & 2 (0:20)
D-------------------------------------------------------------------------|
A-----------7-7-7---------7-7-7-----------------7-7-7---------7-7-7-------|
F-------------------------------------------------------------------------|
C----------(4-4-4)-------(4-4-4)---------------(4-4-4)-------(4-4-4)------|
G---4---4-x-------4---4-x-------4h5p4p0-4---4-x-------4---4-x-------4/7---|
C---4---4-x-------4---4-x-------4h5p4p0-4---4-x-------4---4-x-------4/7---|

Guitar 1 (0:25)
D-------------------------------------------|
A-------------------------------------------|
F-------------------------------------------|
C--(4)---(6)---(7)----2-----2-----0-----4---|
G---0-----0-----0-----2-----2-----0-----4---|
C---0-----0-----0-----2-----2-----0-----4---|

Guitar 2 (0:25)
D-------------------------------------------|
A-------------------------------------------|
F---11----13----14----13----16----19----18--|
C---x-----x-----x-----x-----x-----x-----x---|
G---9-----11----12----11----14----17----16--|
C-------------------------------------------|

VERSE: (0:30) (Slide note, don't pick)
Guitar 1
D------------------------------------------|
A------------------------------------------|
F------------------------------------------|
C------------------------------------------|
G---------------/7---------------------X---| Stop note at X
C---------------/7---------------------X---|
        I try to face the fight within

Guitar 2 (0:49) (Clean effect) 
D-----------0---------------0---------------0-----------------0-----|
A-------2---------------2---------------2-----------------2---------|
F-------------------------------------------------------------------|
C-------------------------------------------------------------------| x2
G--------------------0----------------------------------------------|
C---4-------------------------------0---------------2---------------|

CHORUS: (1:09) DISTORTION
Guitar 1
D-----------------------------------------------------------------------------------|
A-----------------------------------------------------------------------------------|
F-----------------------------------------------------------------------------------|
C---4---4---4---4---4---0---0---0---0---0---7---7---7---7---7---2---2---2---2---X-0-|
G---4---4---4---4---4---0---0---0---0---0---7---7---7---7---7---2---2---2---2---X-0-|
C---4---4---4---4---4---0---0---0---0---0---7---7---7---7---7---2---2---2---2---X-0-|
    Angels fall..       Broken wings!       Can't give up!      Can't give in!

Guitar 2 (1:09)
D-----------------------------------------------------------------------------------|
A-------10--10--------------10--10--------------10--12--10----------10--12--10------|
F-------x---x---------------x---x-----------9---x---x---x---9---9---x---x---x---9---|
C-------7---7---------------7---7-----------x---7---9---7---x---x---7---9---7---x---|
G-------------------------------------------7---------------7---7---------------7---|
C-----------------------------------------------------------------------------------|

Guitar 1 (1:21)
D-------------------------------------------------------------------------------------|
A-------------------------------------------------------------------------------------|
F-------------------------------------------------------------------------------------|
C---4---4---4---4---4---0---0---0---0---0---7---7---7---7---7---2---2---2---2---2--XX-|
G---4---4---4---4---4---0---0---0---0---0---7---7---7---7---7---2---2---2---2---2--XX-|
C---4---4---4---4---4---0---0---0---0---0---7---7---7---7---7---2---2---2---2---2--XX-|
    All is lost..       Daylight ends..     Carry you..         We will live for-

Guitar 2 (1:21)
D-----------------------------------------------------------------------------------|
A-------10--10--------------10--10--------------10--12--10----------10--12--10------|
F-------x---x---------------x---x-----------9---x---x---x---9---9---x---x---x---9---|
C-------7---7---------------7---7-----------x---7---9---7---x---x---7---9---7---x---|
G-------------------------------------------7---------------7---7---------------7---|
C-----------------------------------------------------------------------------------|

Guitar 1 & 2 (1:30)
D---------------------------------------------|
A---------------------------------------------|
F---------------------------------------------|
C---0---0---0---0---0---2---2---2---2---X-0---|
G---0---0---0---0---0---2---2---2---2---X-0---|
C---0---0---0---0---0---2---2---2---2---X-0---|
   -Ever!           Forever!

POST-CHORUS: (1:35)
Guitar 1 & 2
D-------------------------------------------------------------------------|
A-----------7-7-7---------7-7-7-----------------7-7-7---------7-7-7-------|
F-------------------------------------------------------------------------|
C----------(4-4-4)-------(4-4-4)---------------(4-4-4)-------(4-4-4)------|
G---4---4-x-------4---4-x-------4h5p4p0-4---4-x-------4---4-x-------4/7---|
C---4---4-x-------4---4-x-------4h5p4p0-4---4-x-------4---4-x-------4/7---|

Guitar 1 (1:41)
D-------------------------------------------|
A-------------------------------------------|
F-------------------------------------------|
C---0-----0-----0-----9-----9\-2--0-----4---|
G---0-----0-----0-----7-----7\-2--0-----4---|
C---0-----0-----0-----6-----6\-2--0-----4---|

Guitar 2 (1:41)
D-------------------------------------------|
A-------------------------------------------|
F---11----13----14----13----16----19----18--|
C---x-----x-----x-----x-----x-----x-----x---|
G---9-----11----12----11----14----17----16--|
C-------------------------------------------|

VERSE 2: (1:46)
Guitar 1 (Slide note, don't pick)
D------------------------------------------|
A------------------------------------------|
F------------------------------------------|
C------------------------------------------|
G---------------/7---------------------X---| Stop note at X
C---------------/7---------------------X---|
  Grey skies..   Chase the light away..

Guitar 2: (1:51) (Clean effect)
D-------------0----------------------------|
A---------0-------2------------------------|
F-----2------------------------------------|
C------------------------------------------|
G------------------------------------------|
C-0----------------------------------------|
                    No longer!

Guitar 1: (1:55)
D------------------------------------------------------------------------------------------------|
A------------------------------------------------------------------------------------------------|
F------------------------------------------------------------------------------------------------|
C------------------------------------------------------------------------------------------------|
G---4---4---4---4-4---4---4-4---7---7---7---7---7---0---0---0---0-0---0--0-0--2---2---2---2---2--|
C---4---4---4---4-4---4---4-4---7---7---7---7---7---0---0---0---0-0---0--0-0--2---2---2---2---2--|
    *   *   *   * *   *   * *   *   *   *   *       *   *   *   * *   *  * *  *   *   *   *
    Fought in..                 Only dark..     Remains..             Forever..

Guitar 2: (1:55) (Clean effect)
D-----------0---------------0---------------0-----------------0-----|
A-------2---------------2---------------2-----------------2---------|
F-------------------------------------------------------------------|
C-------------------------------------------------------------------| play once
G--------------------0----------------------------------------------|
C---4-------------------------------0---------------2---------------|

Guitar 1 & 2 (2:05) DISTORTION
D----------------------------------------------------------------|
A----------------------------------------------------------------|
F----------------------------------------------------------------|
C------------------------------------------------------------0---|
G---0-----------XX-2---------7-----0------------XX-2-------X-0---|
C---0-----------XX-2---------7-----0------------XX-2-------X-0---|
    Divided I will stand!          I will let this end!    When-

CHORUS 2:
Guitar 1 (2:14)
D-----------------------------------------------------------------------------------|
A-----------------------------------------------------------------------------------|
F-----------------------------------------------------------------------------------|
C---4---4---4---4---4---0---0---0---0---0---7---7---7---7---7---2---2---2---2---X-0-|
G---4---4---4---4---4---0---0---0---0---0---7---7---7---7---7---2---2---2---2---X-0-|
C---4---4---4---4---4---0---0---0---0---0---7---7---7---7---7---2---2---2---2---X-0-|
    Angels fall..       Broken wings!       Can't give up!      Can't give in!

Guitar 2 (2:14)
D-----------------------------------------------------------------------------------|
A-------10--10--------------10--10--------------10--12--10----------10--12--10------|
F-------x---x---------------x---x-----------9---x---x---x---9---9---x---x---x---9---|
C-------7---7---------------7---7-----------x---7---9---7---x---x---7---9---7---x---|
G-------------------------------------------7---------------7---7---------------7---|
C-----------------------------------------------------------------------------------|

Guitar 1 (2:25)
D-------------------------------------------------------------------------------------|
A-------------------------------------------------------------------------------------|
F-------------------------------------------------------------------------------------|
C---4---4---4---4---4---0---0---0---0---0---7---7---7---7---7---2---2---2---2---2--XX-|
G---4---4---4---4---4---0---0---0---0---0---7---7---7---7---7---2---2---2---2---2--XX-|
C---4---4---4---4---4---0---0---0---0---0---7---7---7---7---7---2---2---2---2---2--XX-|
    All is lost..       Daylight ends..     Carry you..         We will live for-

Guitar 2 (2:25)
D-----------------------------------------------------------------------------------|
A-------10--10--------------10--10--------------10--12--10----------10--12--10------|
F-------x---x---------------x---x-----------9---x---x---x---9---9---x---x---x---9---|
C-------7---7---------------7---7-----------x---7---9---7---x---x---7---9---7---x---|
G-------------------------------------------7---------------7---7---------------7---|
C-----------------------------------------------------------------------------------|

Guitar 1 & 2 (2:34)
D-----------------------------------------|
A-----------------------------------------|
F-----------------------------------------|
C-----------------------2------/7---9-----|
G---0---0---0---0---0---2------/7---7-----|
C---0---0---0---0---0---2------/7---6-----|
   -Ever!           Forever!

BREAK:
Guitar 1 (2:39)
D---------------------------------------------------------------------|
A---------------------------------------------------------------------|
F---------------------------------------------------------------------|
C---------------0-----------------2-----------------4-----7---9---2---|
G---0---0---0---0-----2---2---2---2-----4---4---4---4-----7---7---2---|
C---0---0---0---0-----2---2---2---2-----4---4---4---4-----7---6---2---|
                    Sun begins to..     Rise!             Wash away..

Guitar 2 (2:39)
D---------------0-----------------0-----------------------------------|
A------------------2-----------------2----------7---7-----------------|
F---------------------------------------------------6-----9-----------|
C---------------------------------------------------4-----9---9---2---|
G---0---0---0---------2---2---2---------4---4-------4-----7---7---2---|
C---0---0---0---------2---2---2---------4---4-------4-----7---6---2---|

Guitar 1 (2:49)
D---------------------------------------------------------------------|
A---------------------------------------------------------------------|
F---------------------------------------------------------------------|
C---------------0-----------------2-------------------4-----7---9---2-|
G---0---0---0---0-----2---2---2---2-------4---4---4---4-----7---7---2-|
C---0---0---0---0-----2---2---2---2-------4---4---4---4-----7---6---2-|
                      Turning of the..    Time..            Leave it all..

Guitar 2 (2:49)
D---------------------------------------------------------------------|
A---------------3--5----------------------------------7---------------|
F-----------------------------------------------------6-----9---------|
C---------------------------------2-------------------4-----9---9---2-|
G---0---0---0---------2---2---2---2-------4---4---4---4-----7---7---2-|
C---0---0---0---------2---2---2---2---6~--4---4---4---4-----7---6---2-|

Guitar 1 (2:58)
D----------------------------------------------|
A----------------------------------------------|
F----------------------------------------------|
C-------------------0--------------------------|
G---0-0---0---0-0---0------2---2---2---2---2---|
C---0-0---0---0-0---0------2---2---2---2---2---|
    * *   *   * *
                    I will never say goodbye!

Guitar 2 (2:58)
D----------------------------------------------|
A-------------------3---2----------------------|
F----------------------------------------------|
C----------------------------------------------|
G---0-0---0---0-0----------2---2---2---2---2---|
C---0-0---0---0-0----------2---2---2---2---2---|
    * *   *   * *

CHORUS 3: (3:04)
Guitar 1: (Clean effect) STRUMMING
D-----------0-------------------------------------------0---------------------------|
A-----------0-------------------------3-----------------0-----------------------5---|
F-----------6----------6--------------2-----------------2-----------------------4---|
C---4---4---4----------4--------------0-----------------2----------------2-2----2---|
G---4---4---4----------4--------------0-----------------0----------------2-2----2---|
C---4---4---4----------4--------------0----------------------------------2-2----2---|
                When angels fall..  Broken wings..  Can't give up..  Can't give in!

Guitar 1: (3:16) DISTORTION [Both Guitars]
D-------------------------------------------------------------------------------------|
A-------------------------------------------------------------------------------------|
F-------------------------------------------------------------------------------------|
C---4---4---4---4---4---0---0---0---0---0---7---7---7---7---7---2---2---2---2---2--XX-|
G---4---4---4---4---4---0---0---0---0---0---7---7---7---7---7---2---2---2---2---2--XX-|
C---4---4---4---4---4---0---0---0---0---0---7---7---7---7---7---2---2---2---2---2--XX-|
    All is lost..       Daylight ends..     Carry you..         We will live for-
Guitar 2 (3:16)
D-----------------------------------------------------------------------------------|
A-------10--10--------------10--10--------------10--12--10----------10--12--10------|
F-------x---x---------------x---x-----------9---x---x---x---9---9---x---x---x---9---|
C-------7---7---------------7---7-----------x---7---9---7---x---x---7---9---7---x---|
G-------------------------------------------7---------------7---7---------------7---|
C-----------------------------------------------------------------------------------|

Guitar 1 & 2 (3:25)
D---------------------------------------------|
A---------------------------------------------|
F---------------------------------------------|
C---0---0---0---0---0---2---2---2---2---2-X-X-|
G---0---0---0---0---0---2---2---2---2---2-X-X-|
C---0---0---0---0---0---2---2---2---2---2-X-X-|
   -Ever!           Forever!               For-

Guitar 1 & 2 (3:31)
D---------------------------------------------|
A---------------------------------------------|
F---------------------------------------------|
C---0---0---0---0---0---2---2---2-------X-0---|
G---0---0---0---0---0---2---2---2-------X-0---|
C---0---0---0---0---0---2---2---2-------X-0---|
   -Ever!           Forever!

Guitar 1 (3:35)
D---------------------------------------------|
A---------------------------------------------|
F---------------------------------------------|
C---4-4-4-4---X-4-4-4-4-----x-2---4-----------|
G---4-4-4-4---X-4-4-4-4-----x-2---4-----------|
C---4-4-4-4---X-4-4-4-4-----x-2---4-----------|

Guitar 2 (3:35)
D-------------------------------------0-------|
A-----------------------------------------2---|
F---------------------------------2-----------|
C---4-4-4-4---x-4-4-4-4-----x-2---------------|
G---4-4-4-4---x-4-4-4-4-----x-2---------------|
C---4-4-4-4---x-4-4-4-4-----x-2---------------|


Tabbed by: SoarStaraptor
Breaking Benjamin - Breaking the Silence
Tuning: Drop C


Intro: DISTORTION
Guitar 1: (0:00) 
D---------------------------------------------------------------|
A---------------------------------------------------------------|
F---------------------------------------------------------------|
C---------------------------------------------------------------|
G-3---2-------2---2---2---------3---2-------2---2---2-----------|
C-3---2-------2---2---2---6p3p0-3---2-------2---2---2---0h1p0---|

Guitar 2: (0:00)
D---------0-----------------------------------------------------|
A---------0-----------------------------------------------------|
F---------------------------------------------------------------| let ring until
C---------------------------------------------------------------| second repeat
G---------------------------------------------------------------|
C---------------------------------------------------------------|

Guitar 1: (0:05)
D-------------------------------------------------------------|
A-------------------------------------------------------------|
F-------------------------------------------------------------|
C-------------------------------------------------------------|
G-3---2-------2---2---2---------3---2-------------------------|
C-3---2-------2---2---2---6p3p0-3---2-------2---3---/15---\---|

Guitar 1: (0:10)
D---------------------------------------------------------------|
A---------------------------------------------------------------|
F---------------------------------------------------------------|
C---------------------------------------------------------------|
G-3---2-------2---2---2---------3---2-------2---2---2-----------|
C-3---2-------2---2---2---6p3p0-3---2-------2---2---2---0h1p0---|

Guitar 2: (0:10)
D---------0-----------------------------------------------------|
A---------0-----------------------------------------------------|
F---------------------------------------------------------------| 
C---------------------------------------------------------------|
G---------------------------------------------------------------|
C---------------------------------------------------------------|

Guitar 1: (0:15)
D------------------------------------------------------|
A------------------------------------------------------|
F------------------------------------------------------|
C------------------------------------------------------|
G-3---2-------2---2---2---------3---2------------------|
C-3---2-------2---2---2---6p3p0-3---2-------2---6b-0---|

VERSE:
Guitar 1 & 2: (0:20)                                                              
D-----------------------------------------------------------------------------+5-------|
A--------------------------------------------------------------------------------------|
F--------------------------------------------------------------------------------------|
C--------------------------------------------------------------------------------------|
G-3---2---x------------3---3---x----------2---2---x-----------3---3---x----------------|
C-3---2---x------------3---3---x----------2---2---x-----------3---3---x----------------|
          I'll keep my sights..    Waking dream..     Gave my life..      Vile beneath!

Guitar 1 & 2: (0:30)
D--------------------------------------------------------------------------------------|
A--------------------------------------------------------------------------------------|
F--------------------------------------------------------------------------------------|
C--------------------------------------------------------------------------------------|
G-2---2---x------------3---3---x----------2---2---x-----------3---3---x---------3------|
C-2---2---x------------3---3---x----------2---2---x-----------3---3---x---------3------|
              I am but one..        Dying breed..        This wall..      Won't kill..

CHORUS:
Guitar 1: (0:40 - 0:59)
D-------------------------------------------------------0--------------------------------------------|
A-------------------------------------------------------0--------------------------------------------|
F-------------------------------------------------------5--------------------------------------------|
C-2----p0h2-x-2-----X-X---X-2----p0h2-x-2-----X-X-X-X---5----------------------0-0-0-0-0-0-0-0-------| x2
G-2----p0h2-x-2-----X-X---X-2----p0h2-x-2-----X-X-X-X---3----------------------0-0-0-0-0-0-0-0-------|
C-2----p0h2-x-2-----X-X---X-2----p0h2-x-2-----X-X-X-X--------------------------0-0-0-0-0-0-0-0-------|
                                                    I'm Breaking the silence.. falling apart for you!
                                                        Chasing the righteous, becoming apart of you!        
Guitar 2: (0:40 - 0:59)
D---------------------------0---------------------------0------------------------|
A---------------------------0---------------------------0------------------------|
F--------------------------------------------------------------------------------|
C--------------------------------------------------------------------------------| x2
G--------------------------------------------------------------------------------|
C--------------------------------------------------------------------------------|       

Post-Chorus:
Guitar 1: (1:00)
D---------------------------------------------------------------|
A---------------------------------------------------------------|
F---------------------------------------------------------------|
C---------------------------------------------------------------|
G-3---2-------2---2---2---------3---2-------2---2---2-----------|
C-3---2-------2---2---2---6p3p0-3---2-------2---2---2---0h1p0---|

Guitar 2: (1:00)
D---------0-----------------------------------------------------|
A---------0-----------------------------------------------------|
F---------------------------------------------------------------|
C---------------------------------------------------------------| 
G---------------------------------------------------------------|
C---------------------------------------------------------------|

Guitar 1: continued
D---------------------------------------------------------------|
A---------------------------------------------------------------|
F---------------------------------------------------------------|
C---------------------------------------------------------------|
G-3---2-------2---2---2---------3---2-------2---------------5---|
C-3---2-------2---2---2---6p3p0-3---2-------2---6\5-3p0-3h5-----|


VERSE 2:
Guitar 1: (1:10)                                                             
D-----------------------------------------------------------------------------+5-------|
A--------------------------------------------------------------------------------------|
F--------------------------------------------------------------------------------------|
C--------------------------------------------------------------------------------------|
G-3---2---x------------3---3---x----------2---2---x-----------3---3---x----------------|
C-3---2---x------------3---3---x----------2---2---x-----------3---3---x----------------|
          Fake plastic life..      Wasted years..      Lost inside..   ..diabolic fear!

Guitar 1: (1:20)
D--------------------------------------------------------------------------------------|
A--------------------------------------------------------------------------------------|
F--------------------------------------------------------------------------------------|
C--------------------------------------------------------------------------------------|
G-2---2---x------------3---3---x----------2---2---x-----------3---3---x---------3------|
C-2---2---x------------3---3---x----------2---2---x-----------3---3---x---------3------|
             I feel no fault..    Fault I feel..  Drains this wall..   It won't drain me!

CHORUS 2:
Guitar 1: (1:30)
D-------------------------------------------------------0--------------------------------------------|
A-------------------------------------------------------0--------------------------------------------|
F-------------------------------------------------------5--------------------------------------------|
C-2----p0h2-x-2-----X-X---X-2----p0h2-x-2-----X-X-X-X---5----------------------0-0-0-0-0-0-0-0-------| x2
G-2----p0h2-x-2-----X-X---X-2----p0h2-x-2-----X-X-X-X---3----------------------0-0-0-0-0-0-0-0-------|
C-2----p0h2-x-2-----X-X---X-2----p0h2-x-2-----X-X-X-X--------------------------0-0-0-0-0-0-0-0-------|
                                                    I'm Breaking the silence.. falling apart for you!
                                                        Chasing the righteous, becoming apart of you! 
Guitar 2: (1:30)
D---------------------------0---------------------------0------------------------|
A---------------------------0---------------------------0------------------------|
F--------------------------------------------------------------------------------|
C--------------------------------------------------------------------------------| x2
G--------------------------------------------------------------------------------|
C--------------------------------------------------------------------------------|

Bridge/Solo:
Guitar 1: (1:50)
D-----------|
A-----------|
F-----------|
C-2---------| let ring until bass solo ends
G-2---------|
C-2---------|

Guitar 1 & 2: (1:59)
D-----------------------------------------------------------------------------------------|
A-----------------------------------------------------------------------------------------|
F-----------------------------------------------------------------------------------------|
C-2---6---0---8---------2---6---0---8---------2---6---0---8---------2---6---0---8---------|
G-2---6---0---8---5-8---2---6---0---8---8-5---2---6---0---8---5-8---2---6---0---8---8-5---|
C-2---6---0---8---------2---6---0---8---------2---6---0---8---------2---6---0---8---------|

Guitar 1: (2:09)
D-----------------------------------------------------------------------------------------|
A-----------------------------------------------------------------------------------------|
F-----------------------------------------------------------------------------------------|
C-----------------------------------------------------------------------------------3-----|
G-----------------5h8-------------------8p5-------------------5h8-------------------3-----|
C-2---6---0---8---------2---6---0---8---------2---6---0---8---------2---6---0---8---3-----|
  *   *   *   *         *   *   *   *         *   *   *   *         *   *   *   *

Guitar 2: (2:09)
D-16------17------------19------17------------16------17------16----19------17------------|
A-----16------18------------16------15------------16------15------------16------15--x-----|
F-----------------------------------------------------------------------------------------|
C-----------------------------------------------------------------------------------------|
G-----------------------------------------------------------------------------------------|
C-----------------------------------------------------------------------------------------|

CHORUS:
Guitar 1: (2:19)
D-------------------------------------------------------0--------------------------------------------|
A-------------------------------------------------------0--------------------------------------------|
F-------------------------------------------------------5--------------------------------------------|
C-2----p0h2-x-2-----X-X---X-2----p0h2-x-2-----X-X-X-X---5----------------------0-0-0-0-0-0-0-0-------|
G-2----p0h2-x-2-----X-X---X-2----p0h2-x-2-----X-X-X-X---3----------------------0-0-0-0-0-0-0-0-------|
C-2----p0h2-x-2-----X-X---X-2----p0h2-x-2-----X-X-X-X--------------------------0-0-0-0-0-0-0-0-------|
                                                    I'm Breaking the silence.. falling apart for you!
Guitar 2: (2:19)
D---------------------------0---------------------------0------------------------|
A---------------------------0---------------------------0------------------------|
F--------------------------------------------------------------------------------|
C--------------------------------------------------------------------------------|
G--------------------------------------------------------------------------------|
C--------------------------------------------------------------------------------|

Guitar 1: (2:29)                                                      
D-------------------------------------------------------0--------------------------------------|
A-------------------------------------------------------0--------------------------------------|
F-------------------------------------------------------5--------------------------------------|
C-2----p0h2-x-2-----X-X---X-2----p0h2-x-2-----X-X-X-X---5----------------------0-0-0-0-0-0-x---|
G-2----p0h2-x-2-----X-X---X-2----p0h2-x-2-----X-X-X-X---3----------------------0-0-0-0-0-0-x---|
C-2----ph02-x-2-----X-X---X-2----p0h2-x-2-----X-X-X-X--------------------------0-0-0-0-0-0-x---|

Guitar 2: (2:29)
D---------------------------0---------------------------0------------------------|
A---------------------------0---------------------------0------------------------|
F--------------------------------------------------------------------------------|
C--------------------------------------------------------------------------------|
G--------------------------------------------------------------------------------|
C--------------------------------------------------------------------------------|

Guitar 1: (2:39)
D-------------------------------------------------------0--------------------------------0-----------|
A-------------------------------------------------------0--------------------------------5-----------|
F-------------------------------------------------------5--------------------------------4-----------|
C-2----p0h2-x-2-----X-X---X-2----p0h2-x-2-----X-X-X-X---5----------------------0---------0-----------|
G-2----p0h2-x-2-----X-X---X-2----p0h2-x-2-----X-X-X-X---3----------------------0---------------------|
C-2----p0h2-x-2-----X-X---X-2----p0h2-x-2-----X-X-X-X--------------------------0---------------------|
                                                    I'm Breaking the silence.. falling down with you!

Guitar 2: (2:39)
D---------------------------0---------------------------0------------------------|
A---------------------------0---------------------------0------------------------|
F--------------------------------------------------------------------------------|
C--------------------------------------------------------------------------------|
G--------------------------------------------------------------------------------|
C--------------------------------------------------------------------------------|

OUTRO:
Guitar 1 & 2: (2:49)
D-----------------------------------------------------------------------------------|
A-----------------------------------------------------------------------------------|
F-----------------------------------------------------------------------------------|
C-2---0---6---0---3--0---2---0---6---0---3-h5---2---0---6---0---3--0--2---0---2-x---|
G-2---0---6---0---3--0---2---0---6---0---3-h5---2---0---6---0---3--0--2---0---2-x---|
C-2---0---6---0---3--0---2---0---6---0---3-h5---2---0---6---0---3--0--2---0---2-x---|


Tabbed by: Soarstaraptor
Breaking Benjamin - Hollow 'Tab'

Tuning: Drop C#
Guitar 2: (0:07) Clean w/ Delay and Reverb
D#---------------------------------------------------------|
A#---10------------------------10--------------------------|
F#--------7---9---10---7-----------7----9---10----7--------|
C#---------------------------------------------------------|
G#---------------------------------------------------------|
C#-0------------------------0------------------------------|
    Stay alive.. heaven hold a place for us tonight

Guitar 2: (0:14) Clean w/ Delay and Reverb
D#------------------------------------------------------------------|
A#------------------------------------------------------------------|
F#----7-----------10------9-----5/7-----10------9----------7--------|
C#---------10----------------------------------------10---------7---|
G#------------------------------------------------------------------|
C#-8----------------------------x----0------------------------------|
                  I am paralyzed     

Guitar 1: (0:21) DISTORTION
D#----------------------------------------------------------------------------|
A#----------------------------------------------------------------------------|
F#----------------------------------------------------------------------------|
C#----------------------------------------------------------------------------|
G#-----------------------3----------3h5-----------------------3---------------|
C#-0-12-8p0--8p7p0--3p0----5p0--3p0------0-12-8p0--8p7p0--3p0---5p0--3p2p0-7--|

Guitar 2: (0:21)
D#----------------------------------------------------------------------------|
A#----------------------------------------------------6----/10sb--------------|
F#--------7-----9-----9sb-----7-----------------7-----------------------------|
C#----------------------------------------------------------------------------|
G#----------------------------------------------------------------------------|
C#----------------------------------------------------------------------------|


Guitar 1: (0:27)
D#----------------------------------------------------------------------------------|
A#----------------------------------------------------------------------------------|
F#----------------------------------------------------------------------------------|
C#------------------------------------------10---10---10-10--x---7-7-7/10-10-10-10--|
G#-----------------------3----------3h5-----8----8----8--8---x---5-5-5/10-10-10-10--|
C#-0-12-8p0--8p7p0--3p0----5p0--3p0---------8----8----8--8---x---5-5-5/10-10-10-10--|

Guitar 2: (0:27)
D#-----------------------------------------------------------8----------------------|
A#-------------------------------------------/10---8---------------10-----8h10------|
F#--------7-----9-----9sb-----7-----------------------------------------------------|
C#----------------------------------------------------------------------------------|
G#----------------------------------------------------------------------------------|
C#----------------------------------------------------------------------------------|


VERSE: (0:34 - 1:00) PLAY TWICE
Guitar 1: Distortion
D#-----------|
A#-----------|
F#-----------|
C#-0---------| let ring
G#-0---------|
C#-0---------|

Guitar 2: Clean w/ Delay and Reverb
D#---------------------------------------------------------|
A#---10------------------------10--------------------------|
F#--------7---9---10---7-----------7----9---10----7--------|
C#---------------------------------------------------------|
G#---------------------------------------------------------|
C#-0------------------------0------------------------------|
    Close your eyes, drive away the cloud that hides the..
    Dead, alive, find a way to bury all the..

Guitar 2: Clean w/ Delay and Reverb
D#------------------------------------------------------------------|
A#------------------------------------------------------------------|
F#----7-----------10------9-----5/7-----10------9----------7--------|
C#---------10----------------------------------------10---------7---|
G#------------------------------------------------------------------|
C#-8----------------------------x----0------------------------------|
   Light, and leave the pain behind
   Lies, escape the pain inside


Pre-Chorus: (1:01)
Guitar 1:
D#---------------------------------------------------|
A#---------------------------------------------------|
F#---------------------------------------------------|
C#-------------------------------------------X-X-X-X-|
G#-------------------------------------------X-X-X-X-|
C#-------------------------------------------X-X-X-X-|

Guitar 2: Clean w/ Delay and Reverb
D#--------------------------------------------------------|
A#-----------------------------------------------8---10---|
F#------------10---9---------------7--------10------------|
C#----7---8----------------------------10-----------------|
G#--------------------------------------------------------|
C#--------------------------------------------------------|
            Cause I don't wanna fall, or let you go!

CHORUS:
Guitar 1: (1:08)
D#--------------------------------------------------------------------------|
A#--------------------------------------------------------------------------|
F#--------------------------------------------------------------------------|
C#-0-----0-----0--0--7--7---7---7-----8-----8---8--8-------10--10---10---10-|
G#-0-----0-----0--0--7--7---7---7-----8-----8---8--8-------10--10---10---10-|
C#-0-----0-----0--0--7--7---7---7-----8-----8---8--8-------10--10---10---10-|
         Love left me hollow..                  I'm with you in the..

Guitar 2: (1:08)
D#----------------------------------------------------------------------------------|
A#----------------------------------------------------------------------------------|
F#-7-----7/10-101010-9-9-9-9-9-9-9-9--7-----7/10-10-10-10--9-9-9-9-9-9-9-9----------|
C#-x-----x/x--x-x-x--x-x-x-x-x-x-x-x--x-----x/x--x--x--x---x-x-x-x-x-x-x-x----------|
G#-5-----5/8--8-8-8--7-7-7-7-7-7-7-7--5-----5/8--8--8--8---7-7-7-7-7-7-7-7----------|
C#----------------------------------------------------------------------------------|

Guitar 1: (1:14)
D#--------------------------------------------------------------------------------|
A#--------------------------------------------------------------------------------|
F#--------------------------------------------------------------------------------|
C#-0-----0-----0--0--7--7---7---7-----8-----8---8--8-------10--10--10--0h7--7--7--|
G#-0-----0-----0--0--7--7---7---7-----8-----8---8--8-------10--10--10--0h7--7--7--|
C#-0-----0-----0--0--7--7---7---7-----8-----8---8--8-------10--10--10--0h7--7--7--|
         Cold, crippled and shallow, don't leave me here again!

Guitar 2: (1:14)
D#----------------------------------------------------------------------------------|
A#----------------------------------------------------------------------------------|
F#-7-----7/10-101010-9-9-9-9-9-9-9-9--7-----7/10-10-10-10-/12-12-12-12--/14-14-14---|
C#-x-----x/x--x-x-x--x-x-x-x-x-x-x-x--x-----x/x--x--x--x--/x--x--x--x---/x--x--x----|
G#-5-----5/8--8-8-8--7-7-7-7-7-7-7-7--5-----5/8--8--8--8--/10-10-10-10--/12-12-12---|
C#----------------------------------------------------------------------------------|

POST-CHORUS:
Guitar 1: (1:21)
D#----------------------------------------------------------------------------------|
A#----------------------------------------------------------------------------------|
F#----------------------------------------------------------------------------------|
C#------------------------------------------10---10---10-10--x---7-7-7/10-10-10-10--|
G#-----------------------3----------3h5-----8----8----8--8---x---5-5-5/10-10-10-10--|
C#-0-12-8p0--8p7p0--3p0----5p0--3p0---------8----8----8--8---x---5-5-5/10-10-10-10--|

Guitar 2: (1:21)
D#-----------------------------------------------------------8----------------------|
A#-------------------------------------------/10---8---------------10-----8h10------|
F#--------7-----9-----9sb-----7-----------------------------------------------------|
C#----------------------------------------------------------------------------------|
G#----------------------------------------------------------------------------------|
C#----------------------------------------------------------------------------------|

VERSE 2:
Guitar 1: (1:28)
D#----------------------------------------------------------------------|
A#----------------------------------------------------------------------|
F#----------------------------------------------------------------------|
C#----------------------------------------------------------------------|
G#-0--0----------0----0--0----------0--0--------0--0----0--0------------|
C#-0--0----------0----0--0----------0--0--------0--0----0--0------------|
   *  *          *    *  *          *  *        *  *    *  *
   Fruit of life..                  I can hear the voices of the hive..    

Guitar 2: (1:28) Clean w/ Delay and Reverb
D#---------------------------------------------------------|
A#---10------------------------10--------------------------|
F#--------7---9---10---7-----------7----9---10----7--------|
C#---------------------------------------------------------|
G#---------------------------------------------------------|
C#-0------------------------0------------------------------|

Guitar 1: (1:34)
D#----------------------------------------------------------------------|
A#----------------------------------------------------------------------|
F#----------------------------------------------------------------------|
C#----------------------------------------------------------------------|
G#-8--8----------8----8--8----------0--0--------0----0--0--------3h5----|
C#-8--8----------8----8--8----------0--0--------0----0--0----3p0--------|
   *  *          *    *  *          *  *        *    *  *
                 Chemicals collide..

Guitar 2: (1:34)  Clean w/ Delay and Reverb
D#------------------------------------------------------------------|
A#------------------------------------------------------------------|
F#----7-----------10------9-----5/7-----10------9----------7--------|
C#---------10----------------------------------------10---------7---|
G#------------------------------------------------------------------|
C#-8----------------------------x----0------------------------------|

Guitar 1: (1:41)
D#----------------------------------------------------------------------|
A#----------------------------------------------------------------------|
F#----------------------------------------------------------------------|
C#----------------------------------------------------------------------|
G#-0--0----------0----0--0----------0--0--------0--0----0--0------------|
C#-0--0----------0----0--0----------0--0--------0--0----0--0------------|
   *  *          *    *  *          *  *        *  *    *  *
   Loaded smile..                   Light the way for those you left behind..

Guitar 2: (1:41)
D#---------------------------------------------------------|
A#---10------------------------10--------------------------|
F#--------7---9---10---7-----------7----9---10----7--------|
C#---------------------------------------------------------|
G#---------------------------------------------------------|
C#-0------------------------0------------------------------|


Guitar 1: (1:48)
D#----------------------------------------------------------------------|
A#----------------------------------------------------------------------|
F#----------------------------------------------------------------------|
C#----------------------------------------------------------------------|
G#-8--8----------8----8--8----------0--0--------0----0--0---------------|
C#-8--8----------8----8--8----------0--0--------0----0--0----3p0-8\7----|
   *  *          *    *  *          *  *        *    *  *
                 Set the earth on fire..

Guitar 2: (1:48) Clean w/ Delay and Reverb
D#------------------------------------------------------------------|
A#------------------------------------------------------------------|
F#----7-----------10------9-----5/7-----10------9----------7--------|
C#---------10----------------------------------------10---------7---|
G#------------------------------------------------------------------|
C#-8----------------------------x----0------------------------------|

Guitar 1: (1:55)
D#---------------------------------------------------------------------|
A#---------------------------------------------------------------------|
F#---------------------------------------------------------------------|
C#---------------------------------------------------------------------|
G#-5-5-5-5-5-5-5-5-5-5-5-5-5-5-5-5---8-8-8-8-8-8-8-8-8-8-8-8---X-X-X-X-|
C#-5-5-5-5-5-5-5-5-5-5-5-5-5-5-5-5---8-8-8-8-8-8-8-8-8-8-8-8---X-X-X-X-|
   * * * * * * * * * * * * * * * *   * * * * * * * * * * * *

Guitar 2: (1:55) Clean w/ Delay and Reverb
D#--------------------------------------------------------|
A#-----------------------------------------------8---10---|
F#------------10---9---------------7--------10------------|
C#----7---8----------------------------10-----------------|
G#--------------------------------------------------------|
C#--------------------------------------------------------|
            Cause I don't want enough, I want it all

CHORUS 2:
Guitar 1: (2:01)
D#--------------------------------------------------------------------------|
A#--------------------------------------------------------------------------|
F#--------------------------------------------------------------------------|
C#-0-----0-----0--0--7--7---7---7-----8-----8---8--8-------10--10---10---10-|
G#-0-----0-----0--0--7--7---7---7-----8-----8---8--8-------10--10---10---10-|
C#-0-----0-----0--0--7--7---7---7-----8-----8---8--8-------10--10---10---10-|
         Love left me hollow..                  I'm with you in the..

Guitar 2: (2:01)
D#----------------------------------------------------------------------------------|
A#----------------------------------------------------------------------------------|
F#-7-----7/10-101010-9-9-9-9-9-9-9-9--7-----7/10-10-10-10--12-12-12-12-12-12-12-12--|
C#-x-----x/x--x-x-x--x-x-x-x-x-x-x-x--x-----x/x--x--x--x---x--x--x--x--x--x--x--x---|
G#-5-----5/8--8-8-8--7-7-7-7-7-7-7-7--5-----5/8--8--8--8---10-10-10-10-10-10-10-10--|
C#----------------------------------------------------------------------------------|

Guitar 1: (2:08)
D#-----------------------------------------------------------------------------|
A#-----------------------------------------------------------------------------|
F#-----------------------------------------------------------------------------|
C#-0-----0-----0--0--7--7---7---7-----8-----8---8--8-------10--10--------------|
G#-0-----0-----0--0--7--7---7---7-----8-----8---8--8-------10--10--------------|
C#-0-----0-----0--0--7--7---7---7-----8-----8---8--8-------10--10-----0-7-3-7--|
         Cold, crippled and shallow, don't leave me here again!

Guitar 2: (2:08)
D#----------------------------------------------------------------------------------|
A#----------------------------------------------------------------------------------|
F#-7-----7/10-101010-9-9-9-9-9-9-9-9--7-----7/10-10-10-10--9-9-9-9-9-9-9-9----------|
C#-x-----x/x--x-x-x--x-x-x-x-x-x-x-x--x-----x/x--x--x--x---x-x-x-x-x-x-x-x----------|
G#-5-----5/8--8-8-8--7-7-7-7-7-7-7-7--5-----5/8--8--8--8---7-7-7-7-7-7-7-7----------|
C#----------------------------------------------------------------------------------|

Guitar 1: (2:15)
D#----------------------------------------------------------------------------------|
A#----------------------------------------------------------------------------------|
F#----------------------------------------------------------------------------------|
C#-0-----0-----0--0--3--3----3----3-----------10----10--10-10------10--10---10---10-|
G#-0-----0-----0--0--3--3----3----3-----------8-----8---8--8-------10--10---10---10-|
C#-0-----0-----0--0--3--3----3----3-----------8-----8---8--8-------10--10---10---10-|
               I can't go on                        You were bound to break me in!

Guitar 2: (2:15)
D#--------------------------------------------------------------------------------------------|
A#-10----10/13-13-13-13/15-15-15-15/17-17-17--18-18-18-18-17-17-17-17-13-13-13-13-15-15-15-15-|
F#-x-----x-/x--x--x--x-/x--x--x--x-/x--x--x---x--x--x--x--x--x--x--x--x--x--x--x--x--x--x--x--|
C#-7-----7-/10-10-10-10/12-12-12-12/14-14-14--15-15-15-15-14-14-14-14-10-10-10-10-12-12-12-12-|
G#--------------------------------------------------------------------------------------------|
C#--------------------------------------------------------------------------------------------|

Guitar 1: (2:21)
D#----------------------------------------------------------------------------|
A#----------------------------------------------------------------------------|
F#----------------------------------------------------------------------------|
C#-0-----0-----0--0--3--3----3----3-----------10----10--10-10------10--10---\-| slide down
G#-0-----0-----0--0--3--3----3----3-----------8-----8---8--8-------10--10---\-| until bridge
C#-0-----0-----0--0--3--3----3----3-----------8-----8---8--8-------10--10---\-|
               I come undone as you drag me down again!

Guitar 2: (2:21)
D#--------------------------------------------------------------------------------------------|
A#-10----10/13-13-13-13/15-15-15-15/17-17-17--18-18-18-18-17-17-17-17-13-13-13-13-15-15-15-15-|
F#-x-----x-/x--x--x--x-/x--x--x--x-/x--x--x---x--x--x--x--x--x--x--x--x--x--x--x--x--x--x--x--|
C#-7-----7-/10-10-10-10/12-12-12-12/14-14-14--15-15-15-15-14-14-14-14-10-10-10-10-12-12-12-12-|
G#--------------------------------------------------------------------------------------------|
C#--------------------------------------------------------------------------------------------|

Bridge/Solo:
Guitar 1 & 2: (2:28)
D#-----------------------------------------------------------------------------|
A#-----------------------------------------------------------------------------|
F#-----------------------------------------------------------------------------|
C#----------------0---------------------------------------0--------------------|
G#--------------0--------0------------------------------0--------0----3--------|
C#-12-12-0----8-----7--\-0----3h5-3\2---0-0--10/12----8-----7--\-0------3-0-3--|

Guitar 1 & 2 continued
D#-----------------------------------------------------------------------------|
A#-----------------------------------------------------------------------------|
F#-----------------------------------------------------------------------------|
C#----------------0---------------------8-----8--8--8-----8--8---8--7----10--7-|
G#--------------0--------0--------------8-----8--8--8-----8--8---8--7----10--7-|
C#-12-12-0----8-----7--\-0----3h5-3\2---8-----8--8--8-----8--8---8--7----10--7-|

Guitar 1: (2:42)
D#-------------------------------------------------------------------------------|
A#-------------------------------------------------------------------------------|
F#-------------------------------------------------------------------------------|
C#-------------------------------------------------------------------------------|
G#-----------------------0-----------------------------------------0----3--------|
C#-12-12-0----8-----7--\-0----3h5-3\2-----0-0--10/12----8-----7--\-0------3-0-3--|

Guitar 2: (2:42)
D#----------------------------------------10---------------------\----10h13p10----10-|
A#-10------------------\---10h13p10----10--------------------------------------13----|
F#----------------------------------12-----------------------------------------------|
C#-----------------------------------------------------------------------------------|
G#-----------------------------------------------------------------------------------|
C#-----------------------------------------------------------------------------------|

Guitar 1: (2:48)
D#----------------------------------------------------------------------------------------|
A#----------------------------------------------------------------------------------------|
F#----------------------------------------------------------------------------------------|
C#-------------------------------------------------8-----8--8--8-----8--8---8--7----10--7-|
G#-----------------------0-------------------------8-----8--8--8-----8--8---8--7----10--7-|
C#-12-12-0----8-----7--\-0----3h5-3\2--------------8-----8--8--8-----8--8---8--7----10--7-|

Guitar 2: (2:48)
D#--------------------------------------------------|
A#-11-10--------------------------------------------|
F#-------10-9---------------------------10-9----10--|
C#------------12----10---12---12h14p12-------12-----|
G#--------------------------------------------------|
C#--------------------------------------------------|

Guitar 2 continued..
D#-13p12p10----------10h12--15p13p12----------12h13---------------------------------------|
A#----------13p10h13-----------------15-13h15---------------------------------------------|
F#---------------------------------------------------12--10--9--9/10--9-------------------|
C#-----------------------------------------------------------------------10--10/12--------|
G#----------------------------------------------------------------------------------------|
C#----------------------------------------------------------------------------------------|


POST-BRIDGE/SOLO:
Guitar 1: (2:55)           
D#-----------------------------------------------------------|
A#-----------------------------------------------------------|
F#-----------------------------------------------------------|
C#-0------------------------8------------------8--7----10--7-|
G#-0------------------------8------------------8--7----10--7-|
C#-0------------------------8------------------8--7----10--7-|
                                             I come undone!
Guitar 2: (2:55)
D#--------------------------------------------(12)-|
A#-------------------------------------------------|
F#-------------9----9----9-/10-----10------10------|
C#----------------7----7---------8-------8---------|
G#-------------------------------------------------|
C#-------------------------------------------------|

CHORUS 3:
Guitar 1: (3:01)
D#--------------------------------------------------------------------------|
A#--------------------------------------------------------------------------|
F#--------------------------------------------------------------------------|
C#-0-----0-----0--0--7--7---7---7-----8-----8---8--8-------10--10---10---10-|
G#-0-----0-----0--0--7--7---7---7-----8-----8---8--8-------10--10---10---10-|
C#-0-----0-----0--0--7--7---7---7-----8-----8---8--8-------10--10---10---10-|
         Love left me hollow..                  I'm with you in the..

Guitar 2: (3:01)
D#-------------10-10-10-10-12-12-12-12-12-12-12-12-13-13-13-13-13-13-13-13-15-15-15-15-15-15-15-15-|
A#-10-10-10-10-------------------------------------------------------------------------------------|
F#-------------------------------------------------------------------------------------------------|
C#-------------------------------------------------------------------------------------------------|
G#-------------------------------------------------------------------------------------------------|
C#-------------------------------------------------------------------------------------------------|

Guitar 1: (3:08)
D#-----------------------------------------------------------------------------|
A#-----------------------------------------------------------------------------|
F#-----------------------------------------------------------------------------|
C#-0-----0-----0--0--7--7---7---7-----8-----8---8--8-------10--10--------------|
G#-0-----0-----0--0--7--7---7---7-----8-----8---8--8-------10--10--------------|
C#-0-----0-----0--0--7--7---7---7-----8-----8---8--8-------10--10----10-7-0-7--|
         Cold, crippled and shallow, don't leave me here again!

Guitar 2: (3:08)
D#-------------10-10-10-10-12-12-12-12-12-12-12-12-13-13-13-13-13-13-13-13-15-15-15-15-15-15-15-15-|
A#-10-10-10-10-------------------------------------------------------------------------------------|
F#-------------------------------------------------------------------------------------------------|
C#-------------------------------------------------------------------------------------------------|
G#-------------------------------------------------------------------------------------------------|
C#-------------------------------------------------------------------------------------------------|

Guitar 1: (3:15)
D#----------------------------------------------------------------------------------|
A#----------------------------------------------------------------------------------|
F#----------------------------------------------------------------------------------|
C#-0-----0-----0--0--3--3----3----3-----------10----10--10-10------10--10---10---10-|
G#-0-----0-----0--0--3--3----3----3-----------8-----8---8--8-------10--10---10---10-|
C#-0-----0-----0--0--3--3----3----3-----------8-----8---8--8-------10--10---10---10-|
               I can't go on                        You were bound to break me in!

Guitar 2: (3:15)
D#----------------------------------------------------------------------------------|
A#-10------------11----------10-----------------------------------------------------|
F#-------12-----------------------------------10----9----------12-----------10------|
C#----------------------------------------------------------------------------------|
G#----------------------------------------------------------------------------------|
C#----------------------------------------------------------------------------------|

Guitar 1: (3:22)
D#-----------------------------------------------------------------------------|
A#-----------------------------------------------------------------------------|
F#-----------------------------------------------------------------------------|
C#-0-----0-----0--0--3--3---3---3-----8-----8---8--8-------10--10--------------|
G#-0-----0-----0--0--3--3---3---3-----8-----8---8--8-------10--10--------------|
C#-0-----0-----0--0--3--3---3---3-----8-----8---8--8-------10--10-----0-7-3-7--|
               I come undone as you drag me down again!

Guitar 2: (3:22)
D#----------------------------------------------------------------------------------|
A#-10------------11----------10-----------------------------------------------------|
F#-------12-----------------------------------10----9----------12-----10--9--7--9---|
C#----------------------------------------------------------------------------------|
G#----------------------------------------------------------------------------------|
C#----------------------------------------------------------------------------------|


OUTRO:
Guitar 1:
D#----------------------------------------------------------------------------------|
A#----------------------------------------------------------------------------------|
F#----------------------------------------------------------------------------------|
C#------------------------------------------10---10---10-10--x---7-7------------0---|
G#-----------------------3----------3h5-----8----8----8--8---x---5-5------------0---|
C#-0-12-8p0--8p7p0--3p0----5p0--3p0---------8----8----8--8---x---5-5---3h5-3/2--0---|

Guitar 2: Delay and Reverb
D#-----------------------------------------------------13----12---------------------|
A#---------------------------------------------------------------------13h15--------|
F#--------7-----9-----9sb-----7---------------14---12---------------------------14--|
C#----------------------------------------------------------------------------------|
G#----------------------------------------------------------------------------------|
C#----------------------------------------------------------------------------------|

Tabbed by: SoarStaraptor
Breaking Benjamin - Close to Heaven
Tuning: Drop A#


INTRO: DISTORTION
Guitar 1 Rhythm: (0:00)
C---------------------------------------------------------------------------------------------------|
G---------------------------------------------------------------------------------------------------|
D#--------------------------------------------------------------------------------------------------|
A#--------------------------------------------------------------------------------------------------|
F--5----3-5-3-5----3-5-/6-5----3-5-3--6p5-3p0-3h6--5----3-5-3-5----3-5-/6-5----3-5-3----6---8---3---|
A#-5----3-5-3-5----3-5-/6-5----3-5-3--6p5-3p0-3h6--5----3-5-3-5----3-5-/6-5----3-5-3----6---8---3---|

Guitar 2 Lead: (0:00)
G--10---------------------11----------11--13--11---10---------------------11------------8---11--8---|
C-------------8-----------------------------------------------8-------------------------------------|
D#--------------------------------------------------------------------------------------------------|
A#--------------------------------------------------------------------------------------------------|
F---------------------------------------------------------------------------------------------------|
A#--------------------------------------------------------------------------------------------------|

Guitar 1 Rhythm: (0:09)
C---------------------------------------------------------------------------------------------------|
G---------------------------------------------------------------------------------------------------|
D#--------------------------------------------------------------------------------------------------|
A#--------------------------------------------------------------------------------------------------|
F--5----3-5-3-5----3-5-/6-5----3-5-3--6p5-3p0-3h6--5----3-5-3-5----3-5-/6-5----3-5-3----------------|
A#-5----3-5-3-5----3-5-/6-5----3-5-3--6p5-3p0-3h6--5----3-5-3-5----3-5-/6-5----3-5-3----6---8---6---|

Guitar 2 Lead: (0:09)
G--10---------------------11----------11--13--11---10---------------------11------------8---11--8---|
C-------------8-----------------------------------------------8-------------------------------------|
D#--------------------------------------------------------------------------------------------------|
A#--------------------------------------------------------------------------------------------------|
F---------------------------------------------------------------------------------------------------|
A#--------------------------------------------------------------------------------------------------|


VERSE:
Guitar 1 Rhythm: (0:17)
C--------------------------------------------------------------------------------------------|
G--------------------------------------------------------------------------------------------|
D#-------------------------------------------------------------------------------------------|
A#-------------------------------------------------------------------------------------------|
F--5----3-5-3-5----3-5-3-5----3-5-3--6---3---6----5----3-5-3-5----3-5-3-5----3-5-3--8--7--3--|
A#-5----3-5-3-5----3-5-3-5----3-5-3--6---3---6----5----3-5-3-5----3-5-3-5----3-5-3--8--7--3--|
   *    * * * *    * * * *    * * *  *   *   *    *    * * * *    * * * *    * * *  *  *  *
   Pain, come alive..                I try to breathe..    Shade my eyes..          Follow the..

Guitar 2 Lead: (0:17)
C------------|
G--8---------|
D#-----------| let ring
A#-----------|
F------------|
A#-----------|

Guitar 1 Rhythm: (0:26)
C------------------------------------------------------------------------------------------------|
G------------------------------------------------------------------------------------------------|
D#-----------------------------------------------------------------------------------------------|
A#-----------------------------------------------------------------------------------------------|
F--1----0-1-0-1----0-1-3-1----0-1-0----8--7--3----5----3-5-3-5----3-5-3-5----3-5-3--6p5-3p0-3h6--|
A#-1----0-1-0-1----0-1-3-1----0-1-0----8--7--3----5----3-5-3-5----3-5-3-5----3-5-3--6p5-3p0-3h6--|
   *    * * * *    * * * *    * * *    *  *  *    *    * * * *    * * * *    * * *
   Damned..     I have lost the way again!

Guitar 2 Lead: (0:26)
C------------------------------------------------------------------------------------------------|
G--3----------------------------------------------8----------------------------------------------|
D#-----------------------------------------------------------------------------------------------|
A#-----------------------------------------------------------------------------------------------|
F------------------------------------------------------------------------------------------------|
A#-----------------------------------------------------------------------------------------------|

Guitar 1 Rhythm: (0:36)
C------------------------------------------------------------------------------------------|
G------------------------------------------------------------------------------------------|
D#-----------------------------------------------------------------------------------------|
A#-----------------------------------------------------------------------------------------|
F--5----3-5-3-5----3-5-3-5----3-5-3--6--3--6----5----3-5-3-5----3-5-3-5----3-5-3--8--7--3--|
A#-5----3-5-3-5----3-5-3-5----3-5-3--6--3--6----5----3-5-3-5----3-5-3-5----3-5-3--8--7--3--|
   *    * * * *    * * * *    * * *  *  *  *    *    * * * *    * * * *    * * *  *  *  *
   Stay, trust in life               Carried beneath, dead arise..                Sorrow avenged

Guitar 2 Lead: (0:36)
C------------|
G--8---------|
D#-----------| let ring
A#-----------|
F------------|
A#-----------|

Guitar 1 Rhythm: (0:44)
C--------------------------------------------------------------------------------------|
G--------------------------------------------------------------------------------------|
D#-------------------------------------------------------------------------------------|
A#-------------------------------------------------------------------------------------|
F--1----0-1-0-1----0-1-3-1----0-1-0----8--7--3----5----3-5-3-5----3-5-6-5----3-5-3-5-x-|
A#-1----0-1-0-1----0-1-3-1----0-1-0----8--7--3----5----3-5-3-5----3-5-6-5----3-5-3-5-x-|
   *    * * * *    * * * *    * * *    *  *  *    *    * * * *
                I will face the weak within!

Guitar 2 Lead: (0:44)
C------------------------------------------------------------------------------------------------|
G--3----------------------------------------------8----------------------------------------------|
D#-----------------------------------------------------------------------------------------------|
A#-----------------------------------------------------------------------------------------------|
F------------------------------------------------------------------------------------------------|
A#-----------------------------------------------------------------------------------------------|


PRE-CHORUS:
Guitar 2 Lead: (0:53) Clean/w Effect
C--------------------------------------------------------------|
G--------------------------------------------------------------|
D#-------------------------------------------------------------|
A#---7---8---8---7---8---8---7---8---8---7---8---8---7---8---8-|
F------5---5-------5---5---8---8---8---8---8---8---6---6---6---|
A#-5-----------5-----------------------------------------------|

C--------------------------------------------------------------|
G--------------------------------------------------------------|
D#-------------------------------------------------------------|
A#---7---8---8---7---8---8---8---8---8---7---8---8---7---8---8-|
F--6---6---6---6---6---6---6---5-----------5---5-------5---5---|
A#---------------------------------8---5-----------5-----------|

C--------------------------------------------------6---|
G--------------------------------------------------6---|
D#-------------------------------------------------8---| 
A#---7---8---8---7---8---8---7---8---8---7---8---8-8---|
F--8---8---8---8---8---8---6---6---6---6---6---6---6---|
A#-----------------------------------------------------|
               I'll keep love together..

CHORUS:
Guitar 1 Rhythm: (1:10)
C-------------------------------------------------------------------------|
G-------------------------------------------------------------------------|
D#------------------------------------------------------------------------|
A#-5---5---5----5---3---3---3----3---1---1---1----1---1---1---3---0---3---|
F--5---5---5----5---3---3---3----3---1---1---1----1---1---1---3---0---3---|
A#-5---5---5----5---3---3---3----3---1---1---1----1---1---1---3---0---3---|
   I'll be..        yours..          forever..                I'll..

Guitar 2 Lead: (1:10)
C------10----------------10--------13------13------------10------10----------|
G--8-------10-11-8---8-------8---------11------11----13------8-------10---8--|
D#---------------------------------------------------------------------------|
A#---------------------------------------------------------------------------|
F----------------------------------------------------------------------------|
A#---------------------------------------------------------------------------|

Guitar 1 Rhythm: (1:19)
C---------------------------------------------------------------------------|
G---------------------------------------------------------------------------|
D#--------------------------------------------------------------------------|
A#-5---5---5----5---3---3---3---3-3---1---1---1---1-1---1---1---3---0---3---|
F--5---5---5----5---3---3---3---3-3---1---1---1---1-1---1---1---3---0---3---|
A#-5---5---5----5---3---3---3---3-3---1---1---1---1-1---1---1---3---0---3---|
   Sleep..           Close..        To heaven!..

Guitar 2 Lead: (1:19)
G----------10----------------10----------------------------------------------|
C----8-11-----11-8---------8----10-----11--11--11/13-13-/16--16--15----------|
D#-7-----------------7--10---------10----------------------------------------|
A#---------------------------------------------------------------------------|
F----------------------------------------------------------------------------|
A#---------------------------------------------------------------------------|


POST-CHORUS:
Guitar 1 Rhythm: (1:28)
C---------------------------------------------------------------------------------------------------|
G---------------------------------------------------------------------------------------------------|
D#--------------------------------------------------------------------------------------------------|
A#--------------------------------------------------------------------------------------------------|
F--5----3-5-3-5----3-5-/6-5----3-5-3--6p5-3p0-3h6--5----3-5-3-5----3-5-/6-5----3-5-3----------------|
A#-5----3-5-3-5----3-5-/6-5----3-5-3--6p5-3p0-3h6--5----3-5-3-5----3-5-/6-5----3-5-3----6h8-6p0-3h6-|

Guitar 2 Lead: (1:28)
G--10---------------------11----------11--13--11---10---------------------11------------8---11--8---|
C-------------8-----------------------------------------------8-------------------------------------|
D#--------------------------------------------------------------------------------------------------|
A#--------------------------------------------------------------------------------------------------|
F---------------------------------------------------------------------------------------------------|
A#--------------------------------------------------------------------------------------------------|


VERSE 2:
Guitar 1 Rhythm: (1:37)
C--------------------------------------------------------------------------------------------|
G--------------------------------------------------------------------------------------------|
D#-------------------------------------------------------------------------------------------|
A#-------------------------------------------------------------------------------------------|
F--5----3-5-3-5----3-5-3-5----3-5-3--6---3---6----5----3-5-3-5----3-5-3-5----3-5-3--8--7--3--|
A#-5----3-5-3-5----3-5-3-5----3-5-3--6---3---6----5----3-5-3-5----3-5-3-5----3-5-3--8--7--3--|
   *    * * * *    * * * *    * * *  *   *   *    *    * * * *    * * * *    * * *  *  *  *
   Hate, lost inside..               I dare to dream, faithless lies, caught in the..

Guitar 2 Lead: (1:37)
C---------------|
G--8------------|
D#--------------| let ring
A#--------------|
F---------------|
A#--------------|

Guitar 1 Rhythm: (1:46)
C--------------------------------------------------------------------------------------|
G--------------------------------------------------------------------------------------|
D#-------------------------------------------------------------------------------------|
A#-------------------------------------------------------------------------------------|
F--1----0-1-0-1----0-1-3-1----0-1-0----8--7--3----5----3-5-3-5----3-5-6-5----3-5-3-5-x-|
A#-1----0-1-0-1----0-1-3-1----0-1-0----8--7--3----5----3-5-3-5----3-5-6-5----3-5-3-5-x-|
   *    * * * *    * * * *    * * *    *  *  *    *    * * * *                       So..
   Web..        I will face the weak within!

Guitar 2 Lead: (1:46)
C------------------------------------------------------------------------------------------------|
G--3----------------------------------------------8----------------------------------------------|
D#-----------------------------------------------------------------------------------------------|
A#-----------------------------------------------------------------------------------------------|
F------------------------------------------------------------------------------------------------|
A#-----------------------------------------------------------------------------------------------|


CHORUS 2: DISTORTION
Guitar 1 Rhythm: (1:55)
C--------------------------------------------------------------------------|
G--------------------------------------------------------------------------|
D#-------------------------------------------------------------------------|
A#-5---5---5----5---3---3---3----3---1---1---1-----1---1---1---3---0---3---|
F--5---5---5----5---3---3---3----3---1---1---1-----1---1---1---3---0---3---|
A#-5---5---5----5---3---3---3----3---1---1---1-----1---1---1---3---0---3---|
   I'll stay unforgiven..                                          And I'll..

Guitar 2 Lead: (1:55)
C------10--------11------10--------13----------------------------------------|
G--8-------8---------10------10--------11--11--11/13-13-13/16-16-15----------|
D#---------------------------------------------------------------------------|
A#---------------------------------------------------------------------------|
F----------------------------------------------------------------------------|
A#---------------------------------------------------------------------------|

Guitar 1 Rhythm: (2:04)
C----------------------------------------------------------------------------|
G----------------------------------------------------------------------------|
D#---------------------------------------------------------------------------|
A#-5---5---5-----5---3---3---3/5---5---1---1---1---1-----1---1---3---0---3---|
F--5---5---5-----5---3---3---3/5---5---1---1---1---1-----1---1---3---0---3---|
A#-5---5---5-----5---3---3---3/5---5---1---1---1---1-----1---1---3---0---3---|
   Keep...           Love..            Together!                     And I'll..

Guitar 2 Lead: (2:04)
C------10--------11------10--------13----------------------------------------|
G--8-------8---------10------10--------11--11--11/13-13-13/16-16-15----------|
D#---------------------------------------------------------------------------|
A#---------------------------------------------------------------------------|
F----------------------------------------------------------------------------|
A#---------------------------------------------------------------------------|

Guitar 1 Rhythm: (2:12)
C----------------------------------------------------------------------------|
G----------------------------------------------------------------------------|
D#---------------------------------------------------------------------------|
A#-5---5---5---5-5---3---3---3---3-3---1---1---1---1-1---1---1---3---0---3---|
F--5---5---5---5-5---3---3---3---3-3---1---1---1---1-1---1---1---3---0---3---|
A#-5---5---5---5-5---3---3---3---3-3---1---1---1---1-1---1---1---3---0---3---|
   Be..              Yours..           Forever!                      And I'll..

Guitar 2 Lead: (2:12)
C------10--------11------10--------13----------------------------------------|
G--8-------8---------10------10--------11--11--11/13-13-13/16-16-15----------|
D#---------------------------------------------------------------------------|
A#---------------------------------------------------------------------------|
F----------------------------------------------------------------------------|
A#---------------------------------------------------------------------------|

Guitar 1 Rhythm: (2:21)
C--------------------------------------------------------------------|
G--------------------------------------------------------------------|
D#-------------------------------------------------------------------|
A#-5---5---5---5-5---3---3---5---5---1---1---1---1h3---1---1---1--x--|
F--5---5---5---5-5---0---0---5---5---1---1---1---1h3---1---1---1--x--|
A#-5---5---5---5-5---0---0---5---5---1---1---1---1h3---1---1---1--x--|
   Sleep..           Close..     To heaven!

Guitar 2 Lead: (2:21)
C----------10----------------10----------------------------------------------|
G----8-11-----11-8---------8----10-----11--11--11/13-13-/16--16--15-x--------|
D#-7-----------------7--10---------10----------------------------------------|
A#---------------------------------------------------------------------------|
F----------------------------------------------------------------------------|
A#---------------------------------------------------------------------------|


BRIDGE 1:
Guitar 1 Rhythm: (2:30)
C------------------------------------------------------|
G------------------------------------------------------|
D#-----------------------------------------------------|
A#--------0--------------------------------------------|
F----------------------------------------------3-------|
A#-0h1p0-----0-x-0-x-0-x---0-0-x---0-x---0-1-------1---|

(2:34)
C--------------------------------------------------------|
G--------------------------------------------------------|
D#-------------------------------------------------------|
A#--------0----------------------------------------------|
F-------------------------------------------6\5-----3h6--|
A#-0h1p0-----0-x-0-x-0-x---0-0-x---0-x---0------3p0------|

(2:39)
C------------------------------------------------------|
G------------------------------------------------------|
D#-----------------------------------------------------|
A#--------0--------------------------------------------|
F----------------------------------------------3-------|
A#-0h1p0-----0-x-0-x-0-x---0-0-x---0-x---0-1-------1---|

(2:43)
C------------------------------------------------------|
G------------------------------------------------------|
D#-----------------------------------------------------|
A#--------0--------------------------------------------|
F------------------------------------------------------|
A#-0h1p0-----0-x-0-x-0-x---0-0-x---0-x---0-0-x---------|
                                           I'm coming..

Guitar 2 Lead:
C-------------------------------------------------|
G-------------------------------------------------|
D#------------------------------------------------| 
A#-------0-0--------------------------------------|
F---------------------------------------------3---|
A#-0h1p0-----0-3*-0-4*-0-5*-0-0-0-5*-0-3*-0-1---1-|

C-------------------------------------------------------|
G-------------------------------------------------------|
D#------------------------------------------------------| 
A#-------0-0--------------------------------1p0---------|
F---------------------------------------------------3h6-|
A#-0h1p0-----0-3*-0-4*-0-5*-0-0-0-5*-0-3*-0-----3p0-----|

C-------------------------------------------------|
G-------------------------------------------------|
D#------------------------------------------------| 
A#-------0-0--------------------------------------|
F-------------------------------------------------|
A#-0h1p0-----0-3*-0-4*-0-5*-0-0-0-5*-0-3*-0-------|

BRIDGE 2:
Guitar 1 Rhythm: (2:47 - 3:00)
C-----------------------------------------|
G-----------------------------------------|
D#----------------------------------------|
A#-1---1--1-5----5--5-3----3--3-3----3--3-| x3
F--1---1--1-5----5--5-3----3--3-3----3--3-|
A#-1---1--1-5----5--5-3----3--3-3----3--3-|
   Home!                        I'm coming..

Guitar 2 Lead: (2:47 - 3:00)
C-----------------------------------------------------------------------------------------------------|
G--8---8--8/11--11--10--10--6--8-10--8---8---11--13--10-10--6--8-10--8---8--8/11--11--10--10--6--8-10-|
D#-x---x--x/x---x---x---x---x--x-x---x---x---x---x---x--x---x--x-x---x---x--x/x---x---x---x---x--x-x--|
A#-5---5--5/8---8---7---7---3--5-7---5---5---8---10--7--7---3--5-7---5---5--5/8---8---7---7---3--5-7--|
F-----------------------------------------------------------------------------------------------------|
A#----------------------------------------------------------------------------------------------------|

Guitar 1 Rhythm: (3:01)
C-----------------------------------------------------------------------|
G-----------------------------------------------------------------------|
D#----------------------------------------------------------------------|
A#-1----1--1-1----1----1----1----x-3-x-3-x-3--1---------------------X-X-|
F--1----1--1-1----1----1----1----x-3-x-3-x-3--1---------------------X-X-|
A#-1----1--1-1----1----1----1----x-3-x-3-x-3--1---------------------X-X-|
   Release me, my love!                                        So I'll...

Guitar 2 Lead: (3:01)
C----------------------------------|
G--8----8--8-8----8----8----8----x-|
D#-x----x--x-x----x----x----x----x-|
A#-5----5--5-5----5----5----5----x-|
F----------------------------------|
A#---------------------------------|


CHORUS 3:
Guitar 1 Rhythm: (3:10)
C--------------------------------------------------------------------------|
G--------------------------------------------------------------------------|
D#-------------------------------------------------------------------------|
A#-5---5---5--X-X-X-3---3---3----3---1---1---1-----1---1---1---3---0---3---|
F--5---5---5--X-X-X-3---3---3----3---1---1---1-----1---1---1---3---0---3---|
A#-5---5---5--X-X-X-3---3---3----3---1---1---1-----1---1---1---3---0---3---|
   Stay unforgiven..                                               And I'll..

Guitar 2 Lead: (3:10)
C--10------10-------10------10---13---------------------------------|
G------10---------------10-----------11--11--11/13-13-/16--16--15---|
D#------------------------------------------------------------------|
A#------------------------------------------------------------------|
F-------------------------------------------------------------------|
A#------------------------------------------------------------------|

Guitar 1 Rhythm: (3:19)
C--------------------------------------------------------------------------|
G--------------------------------------------------------------------------|
D#-------------------------------------------------------------------------|
A#-5---5---5--X-X-X-3---3---3----3---1---1---1-----1---1---1---3---0---3---|
F--5---5---5--X-X-X-3---3---3----3---1---1---1-----1---1---1---3---0---3---|
A#-5---5---5--X-X-X-3---3---3----3---1---1---1-----1---1---1---3---0---3---|
   Keep love together!                                             And I'll..

Guitar 2 Lead: (3:19)
C------10---------------10-------13---------------------------------|
G--10------10-------10------10-------11--11--11/13-13-/16--16--15---|
D#------------------------------------------------------------------|
A#------------------------------------------------------------------|
F-------------------------------------------------------------------|
A#------------------------------------------------------------------|

Guitar 1 Rhythm: (3:28)
C----------------------------------------------------------------------------|
G----------------------------6-----------------------------------------------|
D#---------------------------5-----------------------------------------------|
A#-5---5---5---5-5---3---3---3---------1---1---1---1-1---1---1---3---0---3---|
F--5---5---5---5-5---3---3---3---------1---1---1---1-1---1---1---3---0---3---|
A#-5---5---5---5-5---3---3---3---------1---1---1---1-1---1---1---3---0---3---|
   Be yours forever!                                                 And I'll..

Guitar 2 Lead: (3:28)
C------10------10-------10---13---------------------------------------|
G--10------10-------10-----------------11--11--11/13-13-/16--16--15---|
D#--------------------------------------------------------------------|
A#--------------------------------------------------------------------|
F---------------------------------------------------------------------|
A#--------------------------------------------------------------------|

Guitar 1 Rhythm: (3:36)
C-----------------------------------------------------------------------------|
G-----------------------------------------------------------------------------|
D#----------------------------------------------------------------------------|
A#-5---5---5---5-5---3---3---5---5---1---1---1---1-----1---1---1--3---0---3---|
F--5---5---5---5-5---3---3---5---5---1---1---1---1-----1---1---1--3---0---3---|
A#-5---5---5---5-5---3---3---5---5---1---1---1---1-----1---1---1--3---0---3---|
   Sleep             Close to heaven!                             I'll..

Guitar 2 Lead: (3:36)
C----------10----------------10----------------------------------------------|
G----8-11-----11-8---------8----10-----11--11--11/13-13-/16--16--15----------|
D#-7-----------------7--10---------10----------------------------------------|
A#---------------------------------------------------------------------------|
F----------------------------------------------------------------------------|
A#---------------------------------------------------------------------------|

Guitar 1 Rhythm: (3:45)
C-----------------------------------------------------------------------------|
G-----------------------------------------------------------------------------|
D#----------------------------------------------------------------------------|
A#-5---5---5---5-5---7---7---5---5---1---1---1---1-----1---1---1--3---0---3---|
F--5---5---5---5-5---3---3---5---5---1---1---1---1-----1---1---1--3---0---3---|
A#-5---5---5---5-5---3---3---5---5---1---1---1---1-----1---1---1--3---0---3---|
   Sleep..           Close to heaven!                             I'll..
 
Guitar 2 Lead: (3:45)
C----------10----------------10----------------------------------------------|
G----8-11-----11-8---------8----10-----11--11--11/13-13-/16--16--15----------|
D#-7-----------------7--10---------10----------------------------------------|
A#---------------------------------------------------------------------------|
F----------------------------------------------------------------------------|
A#---------------------------------------------------------------------------|

Guitar 1 Rhythm: (3:54)
C-----------------------------------|
G-----------------------------------|
D#----------------------------------| last barre chord fades out
A#-5-----------3-----5-------1------|
F--5-----------3-----5-------1------|
A#-5-----------3-----5-------1------|
   Sleep..     Close..    To heaven!

Guitar 2 Lead: (3:54)
C--10----------10------------13-----|
G--------------------11-------------|
D#----------------------------------| last note fades out
A#----------------------------------|
F-----------------------------------|
A#----------------------------------|

Tabbed by: SoarStaraptor
Breaking Benjamin - Bury Me Alive
Tuning: Drop Bb


INTRO:
Guitar 2 Lead: (0:00)
C-------------------------------------------------------------------------------|
G-------------------------------------------------------------------------------|
D#------------------------------------------------------------------------------|
A#------------------------------------------------------------------------------| x2
F-------------------------------------------------------------------------------|
A#-12--12-12-12-12-12-12-12-12-12-12-12-12-12-12-12-12-12-12-12-12-12-12-12-12--|


Guitar 1 Rhythm: (0:10)
C------------------------------------------------------------------------------------|
G------------------------------------------------------------------------------------|
D#-----------------------------------------------------------------------------------|
A#-----------------------------------------------------------------------------------|
F--------0--x-0--x-0-0--x-0--x-0--x-0--x-0-0--x-0--x-0--x-0--------12-------13-------|
A#-13p12-0--x-0--x-0-0--x-0--x-0--x-0--x-0-0--x-0--x-0--x-0--12h13----13p12----13p12-|

Guitar 2 Lead: (0:10)
C----------------------------------------------------------------------|
G----------------------------------------------------------------------|
D#---------------------------------------------------------------------|
A#---------------------------------------------------------------------|
F----------------------------------------------------------------------|
A#-------12-12-12-12-12-12-12-12-12-12-12-12-12-12-12-12-12-x----------|

Guitar 1 Rhythm: (0:16)
C#------------------------------------------------------------------------|
G#------------------------------------------------------------------------|
D#------------------------------------------------------------------------|
A#------------------------------------------------------------------------|
F#-0--x-0--x-0-0--x-0--x-0--x-0--x-0-0--x-0--x-0--------------------------|
A#-0--x-0--x-0-0--x-0--x-0--x-0--x-0-0--x-0--x-0--13-13-13-13-13\10-10-10-|

Guitar 2 Lead: (0:16)
C------------------------------------------------------------------|
G------------------------------------------------------------------|
D#-----------------------------------------------------------------|
A#-----------------------------------------------------------------|
F------------------------------------------------------------------|
A#-12-12-12-12-12-12-12-12-12-12-12-12-12-12-12-x------------------|

Guitar 1 Rhythm: (0:21)
C------------------------------------------------------------------------------------|
G------------------------------------------------------------------------------------|
D#-----------------------------------------------------------------------------------|
A#-----------------------------------------------------------------------------------|
F--------0--x-0--x-0-0--x-0--x-0--x-0--x-0-0--x-0--x-0--x-0--------12-------13-------|
A#-13p12-0--x-0--x-0-0--x-0--x-0--x-0--x-0-0--x-0--x-0--x-0--12h13----13p12----13p12-|


Guitar 1 Lead: (0:21)
C------------------------------------------------------------------------|
G------------------------------------------------------------------------|
D#-----------------------------------------------------------------------|
A#-----------------------------------------------------------------------|
F------------------------------------------------------------------------|
A#-------12-12-12-12-12-12-12-12-12-12-12-12-12-12-12-12-12-x------------|

Guitar 1 Rhythm: (0:26)
C#------------------------------------------------------------------------|
G#------------------------------------------------------------------------|
D#------------------------------------------------------------------------|
A#------------------------------------------------------------------------|
F#-0--x-0--x-0-0--x-0--x-0--x-0--x-0-0--x-0--x-0--------------------------|
A#-0--x-0--x-0-0--x-0--x-0--x-0--x-0-0--x-0--x-0--13-13-13-13-13\10-10-10-|

Guitar 2 Lead: (0:26)
C------------------------------------------------------------------|
G------------------------------------------------------------------|
D#-----------------------------------------------------------------|
A#-----------------------------------------------------------------|
F------------------------------------------------------------------|
A#-12-12-12-12-12-12-12-12-12-12-12-12-12-12-12-x------------------|


VERSE:
Guitar 1 Rhythm: (0:31)
C-----------------------------------------------------------------------|
G-----------------------------------------------------------------------|
D#----------------------------------------------------------------------|
A#----------------------------------------------------------------------|
F-----------------------------------------------------------------------|
A#-13-12-0--x-0--x-0-0--x-------0--x--0--x--0-0--x-0--13\12-10h12/13\12-|
   *  *  *    *    * *          *     *     * *    *
                     I keep falling out of line..

Guitar 2 Lead: (0:31)
C-------------------------10~----------------------10~-----------------|
G--10~-------------------------11~-------------------------------------|
D#---------------------------------------------------------------------|
A#---------------------------------------------------------------------|
F----------------------------------------------------------------------|
A#---------------------------------------------------------------------|

Guitar 1 Rhythm: (0:37)
C-------------------------------------------------------|
G-------------------------------------------------------|
D#------------------------------------------------------|
A#------------------------------------------------------|
F-------------------------------------------------------|
A#-0--x-0--x-0-0--x-------0--x--0--x--0-0--x-0--1p0-1h3-|
   *    *    * *          *     *     * *    *
               I was drained and left behind..

Guitar 2 Lead: (0:37)
C----------------------------------------------------------------------|
G--10~-------------------------11~-----------8~------------------------|
D#------------------------7~-------------------------------------------|
A#---------------------------------------------------------------------|
F----------------------------------------------------------------------|
A#---------------------------------------------------------------------|

Guitar 1 Rhythm: (0:42)
C----------------------------------------------------------------------|
G----------------------------------------------------------------------|
D#---------------------------------------------------------------------|
A#---------------------------------------------------------------------|
F----------------------------------------------------------------------|
A#-1p0--0--x-0--x-0-0--x-------0--x--0--x--0-0--x-0--13\12-10h12/13\12-|
   * *  *    *    * *          *     *     * *    * 
                    All will fade and petrify..

Guitar 2 Lead: (0:42)
C-------------------------10~---------------------10~------------------|
G--10~-------------------------11~-------------------------------------|
D#---------------------------------------------------------------------|
A#---------------------------------------------------------------------|
F----------------------------------------------------------------------|
A#---------------------------------------------------------------------|

Guitar 1 Rhythm: (0:47)
C-------------------------------------------------------|
G-------------------------------------------------------|
D#------------------------------------------------------|
A#-----------------------------------------------X-X----|
F------------------------------------------------X-X----|
A#-0--x-0--x-0-0--x-------0--x--0--x--0-0--x-0---X-X----|
   *    *    * *          *     *     * *    *
               Feed the hate and start the LIES!

Guitar 2 Lead: (0:47)
C----------------------------------------------------------------------|
G--10~-------------------------11~---------------13~-------------------|
D#------------------------7~-------------------------------------------|
A#---------------------------------------------------------------------|
F----------------------------------------------------------------------|
A#---------------------------------------------------------------------|         


PRE-CHORUS:
Both Guitars: (0:52)
C--------------------------------------------------------------------------|
G--------------------------------------------------------------------------|
D#-------------------------------------------------------------------------|
A#-6--x-6--x-6--x-6--6----10-10-10-10-10-10--6--x-6--x-6--x-6--6-----------|
F--6--x-6--x-6--x-6--6-----------------------6--x-6--x-6--x-6--6------3h6--|
A#-6--x-6--x-6--x-6--6-----------------------6--x-6--x-6--x-6--6--3h6------|
                                   Falling in between..                

(0:57)
C------------------------------------------------------------------------------|
G------------------------------------------------------------------------------|
D#-----------------------------------------------------------------------------|
A#-6--x-6--x-6--x-6--6----10-10-10-10-10-10--6--x-6--x-6--x-6--6---------------|
F--6--x-6--x-6--x-6--6-----------------------6--x-6--x-6--x-6--6---------------|
A#-6--x-6--x-6--x-6--6-----------------------6--x-6--x-6--x-6--6--12-12-10-12--|
                                   I am caught beneath!


CHORUS: PLAY TWICE
Guitar 1 Rhythm: (1:02 - 1:23)
C---------------------------------------------------------------------------------------|
G---------------------------------------------------------------------------------------|
D#--------------------------------------------------------------------------------------|
A#-0---0---0---0---0-----8---8---8---8---8-----5---5---5---5---5-----8---8---8---8---8--|
F--0---0---0---0---0-----8---8---8---8---8-----5---5---5---5---5-----6---6---6---6---6--| 
A#-0---0---0---0---0-----8---8---8---8---8-----5---5---5---5---5-----5---5---5---5---5--|
             Light the way and let me..        go..                  Suffocate inside!
             I will break and watch you..      crawl..               Bury me alive!

Guitar 2 Lead: (1:02 - 1:23)
C--10--------------------13--------------------15---------------------------------------|
G--x--x16----------------x--x16----------------x--x16----------------10-----------------|
D#-7---------------------10--------------------12--------------------x--x16-------------|
A#-------------------------------------------------------------------7------------------|
F---------------------------------------------------------------------------------------|
A#--------------------------------------------------------------------------------------|


POST-CHORUS:
Guitar 2 Lead: (1:24) Low Volume Distortion
C-------------------------|
G-------------------------|
D#------------------------| wait one second
A#------------------------| after play
F-------------------------|
A#-13p12-0--x-0--x-0-0--x-|

Guitar 1 Rhythm: (1:26)
C------------------------------------------------------------------------------------|
G------------------------------------------------------------------------------------|
D#-----------------------------------------------------------------------------------|
A#-----------------------------------------------------------------------------------|
F--------0--x-0--x-0-0--x-0--x-0--x-0--x-0-0--x-0--x-0--x-0--------12-------13-------|
A#-13p12-0--x-0--x-0-0--x-0--x-0--x-0--x-0-0--x-0--x-0--x-0--12h13----13p12----13p12-|

Guitar 2 Lead: (1:26)
C------------------------------------------------------------------------|
G------------------------------------------------------------------------|
D#-----------------------------------------------------------------------|
A#-----------------------------------------------------------------------|
F------------------------------------------------------------------------|
A#-------12-12-12-12-12-12-12-12-12-12-12-12-12-12-12-12-12-x------------|

Guitar 1 Rhythm: (1:31)
C#------------------------------------------------------------------------|
G#------------------------------------------------------------------------|
D#------------------------------------------------------------------------|
A#------------------------------------------------------------------------|
F#-0--x-0--x-0-0--x-0--x-0--x-0--x-0-0--x-0--x-0--------------------------|
A#-0--x-0--x-0-0--x-0--x-0--x-0--x-0-0--x-0--x-0--13-13-13-13-13\10-10-10-|

Guitar 2 Lead: (1:31)
C------------------------------------------------------------------|
G------------------------------------------------------------------|
D#-----------------------------------------------------------------|
A#-----------------------------------------------------------------|
F------------------------------------------------------------------|
A#-12-12-12-12-12-12-12-12-12-12-12-12-12-12-12-x------------------|


VERSE 2:
Guitar 1 Rhythm: (1:37)
C-----------------------------------------------------------------------|
G-----------------------------------------------------------------------|
D#----------------------------------------------------------------------|
A#----------------------------------------------------------------------|
F-----------------------------------------------------------------------|
A#-13-12-0--x-0--x-0-0--x-------0--x--0--x--0-0--x-0--13\12-10h12/13\12-|
   *  *  *    *    * *          *     *     * *    *
                     I keep falling out of time..

Guitar 2 Lead: (1:37)
C-------------------------10~----------------------10~-----------------|
G--10~-------------------------11~-------------------------------------|
D#---------------------------------------------------------------------|
A#---------------------------------------------------------------------|
F----------------------------------------------------------------------|
A#---------------------------------------------------------------------|

Guitar 1 Rhythm: (1:42)
C-------------------------------------------------------|
G-------------------------------------------------------|
D#------------------------------------------------------|
A#------------------------------------------------------|
F-------------------------------------------------------|
A#-0--x-0--x-0-0--x-------0--x--0--x--0-0--x-0--1p0-1h3-|
   *    *    * *          *     *     * *    *
               I was blamed and cauterized..

Guitar 2 Lead: (1:42)
C----------------------------------------------------------------------|
G--10~-------------------------11~-----------8~------------------------|
D#------------------------7~-------------------------------------------|
A#---------------------------------------------------------------------|
F----------------------------------------------------------------------|
A#---------------------------------------------------------------------|

Guitar 1 Rhythm: (1:47)
C----------------------------------------------------------------------|
G----------------------------------------------------------------------|
D#---------------------------------------------------------------------|
A#---------------------------------------------------------------------|
F----------------------------------------------------------------------|
A#-1p0--0--x-0--x-0-0--x-------0--x--0--x--0-0--x-0--13\12-10h12/13\12-|
   * *  *    *    * *          *     *     * *    * 
                    All will change and calcify..

Guitar 2 Lead: (1:47)
C-------------------------10~------------------------------------------|
G--10~-------------------------11~----------------8~-------------------|
D#---------------------------------------------------------------------|
A#---------------------------------------------------------------------|
F----------------------------------------------------------------------|
A#---------------------------------------------------------------------|

Guitar 1 Rhythm: (1:53)
C-------------------------------------------------------|
G-------------------------------------------------------|
D#------------------------------------------------------|
A#-----------------------------------------------X-X----|
F------------------------------------------------X-X----|
A#-0--x-0--x-0-0--x-------0--x--0--x--0-0--x-0---X-X----|
   *    *    * *          *     *     * *    *
               Feed the hate and start the LIES!

Guitar 2 Lead: (1:53)
C----------------------------------------------------------------------|
G--10~-------------------------11~---------------13~-------------------|
D#------------------------7~-------------------------------------------|
A#---------------------------------------------------------------------|
F----------------------------------------------------------------------|
A#---------------------------------------------------------------------|


PRE-CHORUS 2:
Both Guitars: (1:58 - 2:07)
C--------------------------------------------------------------------------|
G--------------------------------------------------------------------------|
D#-------------------------------------------------------------------------|
A#-6--x-6--x-6--x-6--6----10-10-10-10-10-10--6--x-6--x-6--x-6--6-----------|
F--6--x-6--x-6--x-6--6-----------------------6--x-6--x-6--x-6--6------3h6--|
A#-6--x-6--x-6--x-6--6-----------------------6--x-6--x-6--x-6--6--3h6------|
                                   Falling in between..

C------------------------------------------------------------------------------|
G------------------------------------------------------------------------------|
D#-----------------------------------------------------------------------------|
A#-6--x-6--x-6--x-6--6----10-10-10-10-10-10--6--x-6--x-6--x-6--6---------------|
F--6--x-6--x-6--x-6--6-----------------------6--x-6--x-6--x-6--6---------------|
A#-6--x-6--x-6--x-6--6-----------------------6--x-6--x-6--x-6--6--12-12-10-12--|
                                   I am caught beneath!

CHORUS 2:
Guitar 1 Rhythm: (2:08 - 2:28)
C---------------------------------------------------------------------------------------|
G---------------------------------------------------------------------------------------|
D#--------------------------------------------------------------------------------------|
A#-0---0---0---0---0-----8---8---8---8---8-----5---5---5---5---5-----8---8---8---8---8--|
F--0---0---0---0---0-----8---8---8---8---8-----5---5---5---5---5-----6---6---6---6---6--| 
A#-0---0---0---0---0-----8---8---8---8---8-----5---5---5---5---5-----5---5---5---5---5--|
             Light the way and let me..        go..                  Suffocate inside!
             I will break and watch you..      crawl..               Bury me alive!

Guitar 2 Lead: (2:08 - 2:28)
C--10--------------------13--------------------15---------------------------------------|
G--x--x16----------------x--x16----------------x--x16----------------10-----------------|
D#-7---------------------10--------------------12--------------------x--x16-------------|
A#-------------------------------------------------------------------7------------------|
F---------------------------------------------------------------------------------------|
A#--------------------------------------------------------------------------------------|


BRIDGE:
Guitar 1 or 2: (2:29)
C-------------------------------------------------------------------|
G-------------------------------------------------------------------|
D#-------7-7-7-------8-8-8-----5-5-------7-7-7-------8-8-8----------|
A#-------------7-7-7---------------------------7-7-7--------X-X---X-|
F--5-5-5-------------------6-6-----5-5-5--------------------X-X---X-|
A#----------------------------------------------------------X-X---X-|
                                                            CONTROL!

Both Guitars: (2:34 - 2:44) 
C------------------------------------------------------------------|
G------------------------------------------------------------------|
D#-----------------------------------------------------------------|
A#-----------------------------------------------------------------| x2
F--------5-5-5-------6-6-6-----3-3-------0-0-0-------1-1-1-----0-0-|
A#-0-0-0-------7-7-7-------1-1-----0-0-0-------1-1-1-------3-3-----|

(2:45)
C--------------------------------------------------------|
G--------------------------------------------------------|
D#-------------------------------------------------------|
A#-0---0---X-0---x-0---1---1p0---0---X-0-----------------|
F--0---0---X-0---x-0---1---1p0---0---X-0---------3-------|
A#-0---0---X-0---x-0---1---1p0---0---X-0---1p0h1---1p0h1-|

(2:50)
C--------------------------------------------------------|
G--------------------------------------------------------|
D#-----------------------------------------------2-2-2-2-|
A#-0---0---X-0---x-0---1---1p0---0---X-0-----------------|
F--0---0---X-0---x-0---1---1p0---0---X-0-----------------|
A#-0---0---X-0---x-0---1---1p0---0---X-0---1p0h1---------|

(2:55)
C--------------------------------------------------------|
G--------------------------------------------------------|
D#-------------------------------------------------------|
A#-0---0---X-0---x-0---1---1p0---0---X-0-----------------|
F--0---0---X-0---x-0---1---1p0---0---X-0---------3-------|
A#-0---0---X-0---x-0---1---1p0---0---X-0---1p0h1---1p0h1-|
   LIES..                    INSIDE..

(3:01)
C---------------------------------------|
G---------------------------------------|
D#--------------------------------------|
A#-0---0---X-0---x-0---1-----0-x--------|
F--0---0---X-0---x-0---1-----0-x--------|
A#-0---0---X-0---x-0---1-----0-x--------|
   LIES..                    INSIDE!

CHORUS 3:
Guitar 1 Rhythm: (3:06 - 3:26)
C---------------------------------------------------------------------------------------|
G---------------------------------------------------------------------------------------|
D#--------------------------------------------------------------------------------------|
A#-0---0---0---0---0-----8---8---8---8---8-----5---5---5---5---5-----8---8---8---8---8--| x2
F--0---0---0---0---0-----8---8---8---8---8-----5---5---5---5---5-----6---6---6---6---6--| 
A#-0---0---0---0---0-----8---8---8---8---8-----5---5---5---5---5-----5---5---5---5---5--|
             Light the way and let me..        go..                  Suffocate inside!
             I will break and watch you..      crawl..               Bury me alive!

Guitar 2 Lead: (3:06 - 3:26)
C--10--------------------13--------------------15---------------------------------------|
G--x--x16----------------x--x16----------------x--x16----------------10-----------------|
D#-7---------------------10--------------------12--------------------x--x16-------------|
A#-------------------------------------------------------------------7------------------| x2
F---------------------------------------------------------------------------------------|
A#--------------------------------------------------------------------------------------|

Guitar 1 Rhythm: (3:27 - 3:47)
C---------------------------------------------------------------------------------------|
G---------------------------------------------------------------------------------------|
D#-7---7---7---7---7--------------------------------------------------------------------|
A#-x---x---x---x---x-----8---8---8---8---8-----5---5---5---5---5-----8---8---8---8---8--| x2
F--5---5---5---5---5-----8---8---8---8---8-----5---5---5---5---5-----6---6---6---6---6--| 
A#-----------------------8---8---8---8---8-----5---5---5---5---5-----5---5---5---5---5--|
             Light the way and let me..        go..                  Suffocate inside!
             I will break and watch you..      crawl..               Bury me alive!

Guitar 2 Lead: (3:27 - 3:47)
C--10--------------------13--------------------15---------------------------------------|
G--x--x16----------------x--x16----------------x--x16----------------10-----------------|
D#-7---------------------10--------------------12--------------------x--x16-------------|
A#-------------------------------------------------------------------7------------------| x2
F---------------------------------------------------------------------------------------|
A#--------------------------------------------------------------------------------------|


OUTRO:
Guitar 1 Rhythm: (3:48)
C----------------------------------------------------------------|
G----------------------------------------------------------------|
D#---------------------------------------------------------------|
A#---------------------------8-----------------------------------|
F--------0--x-0--x-0-0--x-0--8---6\5-0--x-0--x-0-0--x-0------3h6-|
A#-13p12-0--x-0--x-0-0--x-0--8-------0--x-0--x-0-0--x-0--3h6-----|
                                 Bury me alive!
                         
Guitar 2 Lead: (3:48)
C----------------------------------------------------------------------|
G----------------------------------------------------------------------|
D#---------------------------------------------------------------------|
A#---------------------------------------------------------------------|
F----------------------------------------------------------------------|
A#-------12-12-12-12-12-12-12-x------12-12-12-12-12-12-12-x------------|

Guitar 1 Rhythm: (3:53)
C----------------------------------------------------------------|
G----------------------------------------------------------------|
D#---------------------------------------------------------------|
A#---------------------------8-----------------------------------|
F--6\5---0--x-0--x-0-0--x-0--8---6\5-0--x-0--x-0-0--x-0----------|
A#-------0--x-0--x-0-0--x-0--8-------0--x-0--x-0-0--x-0--7p0-7h8-|
                                 Bury me alive!

Guitar 2 Lead: (3:53)
C----------------------------------------------------------------------|
G----------------------------------------------------------------------|
D#---------------------------------------------------------------------|
A#---------------------------------------------------------------------|
F----------------------------------------------------------------------|
A#-------12-12-12-12-12-12-12-x------12-12-12-12-12-12-12-x------------|

Guitar 1 Rhythm: (3:58)
C--------------------------|
G--------------------------|
D#-------------------------|
A#-------------------------|
F-------0-x-0--x-0-0--x----|
A#-7p0--0-x-0--x-0-0--x----|


   Tabbed by: Soarstaraptor
Breaking Benjamin - Never Again 
Tuning: Drop Bb


INTRO:
Guitar 2 Lead: (0:00 - 0:14)
C--10------8---------------------8-------------|
G------10-----10--11\10--11--10-----10--11/10--|
D#---------------------------------------------|
A#---------------------------------------------| x3
F----------------------------------------------|
A#---------------------------------------------|

Guitar 1 Rhythm: (0:05 - 0:14) Distortion
C-----------------------------------|
G-----------------------------------|
D#----------------------------------| gradually increase
A#------------------------0---------| volume on last barre chord
F-------------------------0---------|
A#------------------------0---------|

Guitar 1 Rhythm: (0:15) DISTORTION
C-------------------------------------------------------------|
G-------------------------------------------------------------|
D-------------------------------------------------------------|
A-------------------------------------------------------------|
F-0--------------0--------------0-------------0--1p0-------6--|
A-0---8p7-0-3p2--0---8p7p0-5p7--0--8p7-0-3p2--0------3p0-8----|

Guitar 2 Lead: (0:15)
C-10------8---------------------8-------------|
G-----10-----10--11\10--11--10-----10--11/10--|
D#--------------------------------------------|
A#--------------------------------------------| 
F---------------------------------------------|
A#--------------------------------------------|

Guitar 1 Rhythm: (0:20)
C------------------------------------------------------------|
G------------------------------------------------------------|
D---------------------------------------------5--------------|
A---------------------------------------------5---3---8------|
F-0--------------0--------------0-------------3---3---8------|
A-0---8p7-0-3p2--0---8p7p0-5p7--0--8p7-0-3p0------3---8------|

Guitar 2 Lead: (0:20)
C-10------8------------------------------------|
G-----10-----10--11\10--11---------10--11--10--|
D#--------------------------10-----------------|
A#---------------------------------------------| 
F----------------------------------------------|
A#---------------------------------------------|


VERSE: PLAY TWICE
Guitar 1, 2 or Both: (0:25 - 0:45)
C-------------------------------------------------------------|
G-------------------------------------------------------------|
D#------------------------------------------------------------|
A#------------------------5+------------------------------5+--|
F-------------------------------------------------------------|
A#-0--x-0--x-0--0--x-0---------0--0--x-0--x-0--0--x--0--x-----|
   *    *    *  *    *         *  *    *    *  *     *
                       Carry me under, leave me abandoned..
                       Beautiful anger, breaking the pattern..                 

C------------------------------------------------|
G------10--10--10---10---------------------------|
D#-----10--10--10---10---------------------------|
A#-8---8---8---8----8----10---10---10---10---10--|
F--8---8---8---8----8----10---10---10---10---10--|
A#-8---8---8---8----8----10---10---10---10---10--|
           Show me what's left, show me what's left!

CHORUS: PLAY TWICE
Guitar 1 Rhythm: (0:46 - 1:05)
C----------------------------------------------------------------------------------------|
G----------------------------------------------------------------------------------------|
D#-----------------------5---5---5---5---5-----------------------------------------------|
A#-3---3---3---3---3-----5---5---5---5---5-----0---0---0---0---0-----8---8---8---8---8---|
F--3---3---3---3---3-----3---3---3---3---3-----0---0---0---0---0-----8---8---8---8---8---|
A#-3---3---3---3---3---------------------------0---0---0---0---0-----8---8---8---8---8---|
           Take the cold from your eyes,               I bleed for you, I bleed for you!
           Bring the broken back to life,              We'll make it through..

Guitar 2 Lead: (0:46 - 1:05)
C--13--12--13--15--13-12-13--12--13--15--13-12-13--12--13--15--13-12-17--15--17--20v-17--|
G----------------------------------------------------------------------------------------|
D#---------------------------------------------------------------------------------------|
A#---------------------------------------------------------------------------------------|
F----------------------------------------------------------------------------------------|
A#---------------------------------------------------------------------------------------|


POST-CHORUS:
Guitar 1 Rhythm: (1:06)
C------------------------------------------------------------|
G------------------------------------------------------------|
D---------------------------------------------5--------------|
A---------------------------------------------5---3---8------|
F-0--------------0--------------0-------------3---3---8------|
A-0---8p7-0-3p2--0---8p7p0-5p7--0--8p7-0-3p0------3---8------|

Guitar 2 Lead: (1:06)
C-10------8------------------------------------|
G-----10-----10--11\10--11---------10--11--10--|
D#--------------------------10-----------------|
A#---------------------------------------------| 
F----------------------------------------------|
A#---------------------------------------------|

VERSE 2:
Guitar 1, 2 or Both: (1:12 - 1:31)
C-------------------------------------------------------------|
G-------------------------------------------------------------|
D#------------------------------------------------------------|
A#------------------------5+-------------------------------5+-|
F-------------------------------------------------------------|
A#-0--x-0--x-0--0--x-0---------0--0--x-0--x-0--0--x--0--x-----|
   *    *    *  *    *         *  *    *    *  *     *
                       Empy and perfect, shattered and worthless..
                       Dragging me further, forget to remember..                 

C------------------------------------------------|
G------10--10--10---10---------------------------|
D#-----10--10--10---10---------------------------|
A#-8---8---8---8----8----10---10---10---10----x--|
F--8---8---8---8----8----10---10---10---10----x--|
A#-8---8---8---8----8----10---10---10---10----x--|
           Show me what's left, show me what's left!

CHORUS 2:
Guitar 1 Rhythm: (1:32 - 1:52)
C----------------------------------------------------------------------------------------|
G----------------------------------------------------------------------------------------|
D#-----------------------5---5---5---5---5-----------------------------------------------|
A#-3---3---3---3---3-----5---5---5---5---5-----0---0---0---0---0-----8---8---8---8---8---| x2
F--3---3---3---3---3-----3---3---3---3---3-----0---0---0---0---0-----8---8---8---8---8---|
A#-3---3---3---3---3---------------------------0---0---0---0---0-----8---8---8---8---8---|
           Take the cold from your eyes,               I bleed for you, I bleed for you!
           Bring the broken back to life,              We'll make it through..

Guitar 2 Lead: (1:32 - 1:52)
C--13--12--13--15--13-12-13--12--13--15--13-12-13--12--13--15--13-12-17--15--17--20v-17--|
G----------------------------------------------------------------------------------------|
D#---------------------------------------------------------------------------------------|
A#---------------------------------------------------------------------------------------| x2
F----------------------------------------------------------------------------------------|
A#---------------------------------------------------------------------------------------|


Guitar 1 Rhythm: (1:53 - 2:12)
C----------------------------------------------------------------------------------------|
G----------------------------------------------------------------------------------------|
D#-------------------------------------------------------------------5---5---5---5---5---|
A#-0---0---0---0---0-----8---8---8---8---8-----3---3---3---3---3-----5---5---5---5---5---| x2
F--0---0---0---0---0-----8---8---8---8---8-----3---3---3---3---3-----3---3---3---3---3---|
A#-0---0---0---0---0-----8---8---8---8---8-----3---3---3---3---3-------------------------|
             Never again!         Never again!           Time will not take the life from me!

Guitar 2 Lead: (1:53 - 2:12)
C--13--12--13--15--13-12-13--12--13--15--13-12-13--12--13--15--13-12-17--15--17--20v-17--|
G----------------------------------------------------------------------------------------|
D#---------------------------------------------------------------------------------------|
A#---------------------------------------------------------------------------------------| x2
F----------------------------------------------------------------------------------------|
A#---------------------------------------------------------------------------------------|


BRIDGE:
Guitar 1 Rhythm: (2:13)
C--------------------------------------------------------------------------------|
G--------------------------------------------------------------------------------|
D#-------------------------------------------------------------------------------|
A#-------------------------------------------------------------------------------|
F------------------------------------------------------------------------------0-|
A#-0--0--x-0--1p0--0--7p6p5-0-0--1p0--0--x--0--0--x-0--1p0--0--7p6p5-0-0---3-5---|
   *  *    *       *        * *       *     *  *            *        * *

Guitar 2 Lead: (2:13)
C--10--------8---------------13--------12--------8-----|
G-------10-------10---8h10--------10--------10-----10--|
D#-----------------------------------------------------|
A#-----------------------------------------------------|
F------------------------------------------------------|
A#-----------------------------------------------------|

Guitar 1 Rhythm: (2:18)
C------------------------------------------|
G------------------------------------------|
D#-----------------------------------------|
A#-3---3---3---3---3---5---5---5---5---5---|
F--1---1---1---1---1---3---3---3---3---3---|
A#-----------------------------------------|
           And after this world is out of reach!

Guitar 2 Lead: (2:18)
C--------------------------8-----------------------|
G--8b----------------------------------------------|
D#-------------------------------------------------|
A#-------------------------------------------------|
F--------------------------------------------------|
A#-------------------------------------------------|

Guitar 1 Rhythm: (2:23)
C--------------------------------------------------------------------------------|
G--------------------------------------------------------------------------------|
D#-------------------------------------------------------------------------------|
A#-------------------------------------------------------------------------------|
F------------------------------------------------------------------------------0-|
A#-0--0--x-0--1p0--0--7p6p5-0-0--1p0--0--x--0--0--x-0--1p0--0--7p6p5-0-0---3-5---|
   *  *    *       *        * *       *     *  *            *        * *
                      Sober and silent, faded and violent!

Guitar 2 Lead: (2:23)
C--10--------8---------------13--------12--------8-----|
G-------10-------10---8h10--------10--------10-----10--|
D#-----------------------------------------------------|
A#-----------------------------------------------------|
F------------------------------------------------------|
A#-----------------------------------------------------|

Guitar 1 Rhythm: (2:28)
C------------------------------------------|
G------------------------------------------|
D#-----------------------------------------|
A#-3---3---3---3---3---5---5---5---5---5---|
F--1---1---1---1---1---3---3---3---3---3---|
A#-----------------------------------------|
           Hopeless I fight to fall between!

Guitar 2 Lead: (2:28)
C--------------------------8-----------------------|
G--8b----------------------------------------------|
D#-------------------------------------------------|
A#-------------------------------------------------|
F--------------------------------------------------|
A#-------------------------------------------------|

Guitar 1 Rhythm: (2:34)
C--------------------------------------------------------------------------------|
G--------------------------------------------------------------------------------|
D#-------------------------------------------------------------------------------|
A#-------------------------------------------------------------------------------|
F------------------------------------------------------------------------------0-|
A#-0--0--x-0--1p0--0--7p6p5-0-0--1p0--0--x--0--0--x-0--1p0--0--7p6p5-0-0---3-5---|
   *  *    *       *        * *       *     *  *            *        * *
                      Never surrender, out of the embers!

Guitar 2 Lead: (2:34)
C--10--------8---------------13--------12--------8-----|
G-------10-------10---8h10--------10--------10-----10--|
D#-----------------------------------------------------|
A#-----------------------------------------------------|
F------------------------------------------------------|
A#-----------------------------------------------------|

Guitar 1 Rhythm: (2:39)
C------------------------------------------|
G------------------------------------------|
D#-----------------------------------------|
A#-3---3---3---3---3---5---5---5---5---x---|
F--1---1---1---1---1---3---3---3---3---x---|
A#-------------------------------------x---|
           So save a space inside for me!

Guitar 2 Lead: (2:39)
C--------------------------8-----------------------|
G--8b----------------------------------------------|
D#-------------------------------------------------|
A#-------------------------------------------------|
F--------------------------------------------------|
A#-------------------------------------------------|


CHORUS 3:
Guitar 1 Rhythm: (2:44 - 3:03)
C----------------------------------------------------------------------------------------|
G----------------------------------------------------------------------------------------|
D#-----------------------5---5---5---5---5-----------------------------------------------|
A#-3---3---3---3---3-----5---5---5---5---5-----0---0---0---0---0-----8---8---8---8---8---| x2
F--3---3---3---3---3-----3---3---3---3---3-----0---0---0---0---0-----8---8---8---8---8---|
A#-3---3---3---3---3---------------------------0---0---0---0---0-----8---8---8---8---8---|
           Take the cold from your eyes,               I bleed for you, I bleed for you!
           Bring the broken back to life,              We'll make it through..

Guitar 2 Lead: (2:44 - 3:03)
C--13--12--13--15--13-12-13--12--13--15--13-12-13--12--13--15--13-12-17--15--17--20v-17--|
G----------------------------------------------------------------------------------------|
D#---------------------------------------------------------------------------------------|
A#---------------------------------------------------------------------------------------| x2
F----------------------------------------------------------------------------------------|
A#---------------------------------------------------------------------------------------|


Guitar 1 Rhythm: (3:04 - 3:24)
C----------------------------------------------------------------------------------------|
G----------------------------------------------------------------------------------------|
D#-------------------------------------------------------------------5---5---5---5---5---|
A#-0---0---0---0---0-----8---8---8---8---8-----3---3---3---3---3-----5---5---5---5---5---| x2
F--0---0---0---0---0-----8---8---8---8---8-----3---3---3---3---3-----3---3---3---3---3---|
A#-0---0---0---0---0-----8---8---8---8---8-----3---3---3---3---3-------------------------|
             Never again!         Never again!           Time will not take the life from me!

Guitar 2 Lead: (3:04 - 3:24)
C--13--12--13--15--13-12-13--12--13--15--13-12-13--12--13--15--13-12-17--15--17--20v-17--|
G----------------------------------------------------------------------------------------|
D#---------------------------------------------------------------------------------------|
A#---------------------------------------------------------------------------------------| x2
F----------------------------------------------------------------------------------------|
A#---------------------------------------------------------------------------------------|

OUTRO:
Guitar 1 Rhythm: (3:25)
C------------------------------------------------------------|
G------------------------------------------------------------|
D---------------------------------------------5--------------|
A---------------------------------------------5---3---8------|
F-0--------------0--------------0-------------3---3---8------|
A-0---8p7-0-3p2--0---8p7p0-5p7--0--8p7-0-3p0------3---8------|

Guitar 2 Lead: (3:25)
C-10------8---------------------8-------------|
G-----10-----10--11\10--11--10-----10--11/10--|
D#--------------------------------------------|
A#--------------------------------------------| 
F---------------------------------------------|
A#--------------------------------------------|

Guitar 1 Rhythm: (3:30)
C--------|
G--------|
D#-------| barre chord
A#-0-----| fade out
F--0-----|
A#-0-----|

Guitar 2 Lead: (3:30)
C-10------8------------------------------------|
G-----10-----10--11\10--11---------10--11--10--|
D#--------------------------10-----------------| play during
A#---------------------------------------------| last barre chord
F----------------------------------------------|
A#---------------------------------------------|

Tabbed by: Soarstaraptor
Breaking Benjamin - The Great Divide
Tuning: Drop Bb

INTRO:
Guitar 1 Rhythm: (0:00)
C-----------------------------------------------|
G-----------------------------------------------|
D#----------------------------------------------|
A#-------------------------------------3--3--3--|
F--0h2p0h2-0h2h3p2p0h2-0h2-0h2-3p2-----3--3--3--|
A#-0h2p0h2-0h2h3p2p0h2-0h2-0h2-----0h2-3--3--3--|

Guitar 2 (0:00)
C--0------------|
G--0------------|
D#--------------|
A#--------------|
F---------------|
A#--------------|

Guitar 1 Rhythm: (0:04)
C-----------------------------------------------|
G-----------------------------------------------|
D#----------------------------------------------|
A#----------------------------------------------|
F--0h2p0h2-0h2h3p2p0h2-0h2-0h2---------------8--|
A#-0h2p0h2-0h2h3p2p0h2-0h2-0h2-5p2-0h2--3-/9----|


Guitar 2 Lead: (0:04)
C--0------------|
G--0------------|
D#--------------|
A#--------------|
F---------------|
A#--------------|

Guitar 1 Rhythm: (0:08)
C-----------------------------------------------|
G-----------------------------------------------|
D#----------------------------------------------|
A#-------------------------------------3--3--3--|
F--0h2p0h2-0h2h3p2p0h2-0h2-0h2-3p2-----3--3--3--|
A#-0h2p0h2-0h2h3p2p0h2-0h2-0h2-----0h2-3--3--3--|

Guitar 2 Lead: (0:08)
C--0------------|
G--0------------|
D#--------------|
A#--------------|
F---------------|
A#--------------|

Guitar 1 Rhythm: (0:13)
C-----------------------------------------------|
G-----------------------------------------------|
D#----------------------------------------------|
A#----------------------------------------------|
F--0h2p0h2-0h2h3p2p0h2-0h2-0h2----------3--2----|
A#-0h2p0h2-0h2h3p2p0h2-0h2-0h2-5p2-0h2--------5-|


VERSE:
Guitar 1 Rhythm: (0:18) Less Distortion
C--0------------------------------------------------------------------|
G--0------------------------------------------------------------------|
D#-x------------------------------------------------------------------|
A#-2------------5----------------------------------5------------------|
F--2------------3------0-----------2---------------3----------0-------|
A#-2-------------------0-----------2--------------------------0-------|
       Carry me all... through the night, I am the last light fading..

Guitar 2 Lead: (0:18) Clean (Repeat throughout Verse)
C---------------------------------------------------------------------|
G-----0-----------0-------------------0---------------0---------------|
D#-------0----------0-----0--------------0---------------0----------0-|
A#-2-------------------------4-----2-----------------------------4----|
F---------------3----------------------------------3------------------|
A#---------------------0--------------------------------------0-------|

Guitar 1 Rhythm: (0:26)
C-------------------------------------------------------------------------|
G-------------------------------------------------------------------------|
D#------------------------------------------------------------------------|
A#--------------------5-----------------------------------5---------------|
F--2------------------3------0----------2-----------------3-------0-------|
A#-2-------------------------0----------2-------------------------0-------|
       Leave all the lost... souls... behind, show me the silence breaking..

Guitar 2 Lead: (0:26)
C---------------------------------------------------------------------|
G-----0-----------0-------------------0---------------0---------------|
D#-------0----------0-----0--------------0---------------0----------0-|
A#-2-------------------------4-----2-----------------------------4----|
F---------------3----------------------------------3------------------|
A#---------------------0--------------------------------------0-------|

Guitar 1 Rhythm: (0:34)
C-----------------------------------------------------------------------------------|
G-----------------------------------------------------------------------------------|
D#----------------------------------------------------------------------------------|
A#------------------------5------------------------------------5--------------------|
F--0--2--2--0--2----------3--------0--------0--2--2--0--2------3----------0---------|
A#-0--2--2--0--2-------------------0--------0--2--2--0--2-----------------0---------|
   *  *  *  *  *                            *  *  *  *  *
            And when your lost and out.. of time,    I will be right here waiting..

Guitar 2 Lead: (0:34)
C---------------------------------------------------------------------|
G-----0-----------0-------------------0---------------0---------------|
D#-------0----------0-----0--------------0---------------0----------0-|
A#-2-------------------------4-----2-----------------------------4----|
F---------------3----------------------------------3------------------|
A#---------------------0--------------------------------------0-------|

Guitar 1 Rhythm: (0:43)
C-----------------------------------------------------------------------------|
G-----------------------------------------------------------------------------|
D#----------------------------------------------------------------------------|
A#------------------------5-----------------------------------5---------------|
F--0--2--2--0--2----------3--------0-------0--2--2--0--2------3-----0---------|
A#-0--2--2--0--2-------------------0-------0--2--2--0--2------------0---------|
   *  *  *  *  *                           *  *  *  *  *
            And when your dreams return to life,    I'll be forever fading!

Guitar 2 Lead: (0:43)
C---------------------------------------------------------------------|
G-----0-----------0-------------------0---------------0---------------|
D#-------0----------0-----0--------------0---------------0----------0-|
A#-2-------------------------4-----2-----------------------------4----|
F---------------3----------------------------------3------------------|
A#---------------------0--------------------------------------0-------|

PRE-CHORUS:
Guitar 1 Rhythm: (0:51)
C---------------------------------|
G---------------------------------|
D#--------------------------------|
A#-5-----------------------X-X----|
F--3-----------------------X-X----|
A#-------------------------X-X----|
         And we'll fall... behind!

Guitar 2 Lead: (0:51)
C---------------------------------|
G------0-------------3------------|
D#---------0------------0---------|
A#--------------------------------|
F--3-------------3----------------|
A#--------------------------------|


CHORUS:
Guitar 1 Rhythm: (0:55)
C--------------------------------------------------------------------------------|
G--------------------------------------------------------------------------------|
D#-------------------------------------------------------------5--5--5--5--5--5--|
A#-5--5--5--5--5--5----7--7--7--7--7--7----2--2--2--2--2--2----5--5--5--5--5--5--|
F--5--5--5--5--5--5----5--5--5--5--5--5----2--2--2--2--2--2----3--3--3--3--3--3--|
A#-5--5--5--5--5--5----4--4--4--4--4--4----2--2--2--2--2--2----------------------|
         So I'll wait for you, as I keep your faith alive!

Guitar 2 Lead: (0:55)
C--------------------------------------------------------------------------------|
G--8-------------------10------------------12------------------13-------15-------|
D#-x-x12---------------x--x12--------------x--x12--------------x--x6----x--x6----|
A#-5-------------------7-------------------9-------------------10-------12-------|
F--------------------------------------------------------------------------------|
A#-------------------------------------------------------------------------------|

Guitar 1 Rhythm: (1:04)
C--------------------------------------------------------------------------------|
G--------------------------------------------------------------------------------|
D#-------------------------------------------------------------5--5--5--5--5--5--|
A#-5--5--5--5--5--5----7--7--7--7--7--7----2--2--2--2--2--2----5--5--5--5--5--5--|
F--5--5--5--5--5--5----5--5--5--5--5--5----2--2--2--2--2--2----3--3--3--3--3--3--|
A#-5--5--5--5--5--5----4--4--4--4--4--4----2--2--2--2--2--2----------------------|
         And I'll pray for you, as we cross the great divide!

Guitar 2 Lead: (1:04)
C--------------------------------------------------------------------------------|
G--8-------------------10------------------12------------------13-------15-------|
D#-x-x12---------------x--x12--------------x--x12--------------x--x6----x--x6----|
A#-5-------------------7-------------------9-------------------10-------12-------|
F--------------------------------------------------------------------------------|
A#-------------------------------------------------------------------------------|

POST-CHORUS:
Guitar 1 Rhythm: (1:13)
C-----------------------------------------------|
G-----------------------------------------------|
D#----------------------------------------------|
A#-------------------------------------3--3--3--|
F--0h2p0h2-0h2h3p2p0h2-0h2-0h2-3p2-----3--3--3--|
A#-0h2p0h2-0h2h3p2p0h2-0h2-0h2-----0h2-3--3--3--|

Guitar 2 Lead: (1:13)
C--0------------|
G--0------------|
D#--------------|
A#--------------|
F---------------|
A#--------------|

Guitar 1 Rhythm: (1:17)
C-----------------------------------------------|
G-----------------------------------------------|
D#----------------------------------------------|
A#----------------------------------------------|
F--0h2p0h2-0h2h3p2p0h2-0h2-0h2----------3--2----|
A#-0h2p0h2-0h2h3p2p0h2-0h2-0h2-5p2-0h2--------5-|


VERSE 2:
Guitar 1 Rhythm: (1:21) Less Distortion
C--0------------------------------------------------------------------|
G--0------------------------------------------------------------------|
D#-x------------------------------------------------------------------|
A#-2------------5----------------------------------5------------------|
F--2------------3------0-----------2---------------3----------0-------|
A#-2-------------------0-----------2--------------------------0-------|
       Bury the wounds deep inside, rupture the fault like breaking..

Guitar 2 Lead: (1:21) Clean (Repeat throughout Verse)
C---------------------------------------------------------------------|
G-----0-----------0-------------------0---------------0---------------|
D#-------0----------0-----0--------------0---------------0----------0-|
A#-2-------------------------4-----2-----------------------------4----|
F---------------3----------------------------------3------------------|
A#---------------------0--------------------------------------0-------|

Guitar 1 Rhythm: (1:30)
C-------------------------------------------------------------------------|
G-------------------------------------------------------------------------|
D#------------------------------------------------------------------------|
A#--------------------5-----------------------------------5---------------|
F--2------------------3------0----------2-----------------3-------0-------|
A#-2-------------------------0----------2-------------------------0-------|
       Dream of a world left behind, show us we're worth forsaking..

Guitar 2 Lead: (1:30)
C---------------------------------------------------------------------|
G-----0-----------0-------------------0---------------0---------------|
D#-------0----------0-----0--------------0---------------0----------0-|
A#-2-------------------------4-----2-----------------------------4----|
F---------------3----------------------------------3------------------|
A#---------------------0--------------------------------------0-------|

Guitar 1 Rhythm: (1:39)
C-----------------------------------------------------------------------------------|
G-----------------------------------------------------------------------------------|
D#----------------------------------------------------------------------------------|
A#------------------------5------------------------------------5--------------------|
F--0--2--2--0--2----------3--------0--------0--2--2--0--2------3----------0---------|
A#-0--2--2--0--2-------------------0--------0--2--2--0--2-----------------0---------|
   *  *  *  *  *                            *  *  *  *  *
            And when the cold begins to rise, darkness is overtaking..

Guitar 2 Lead: (1:39)
C---------------------------------------------------------------------|
G-----0-----------0-------------------0---------------0---------------|
D#-------0----------0-----0--------------0---------------0----------0-|
A#-2-------------------------4-----2-----------------------------4----|
F---------------3----------------------------------3------------------|
A#---------------------0--------------------------------------0-------|

Guitar 1 Rhythm: (1:47)
C-----------------------------------------------------------------------------|
G-----------------------------------------------------------------------------|
D#----------------------------------------------------------------------------|
A#------------------------5-----------------------------------5---------------|
F--0--2--2--0--2----------3--------0-------0--2--2--0--2------3-----0---------|
A#-0--2--2--0--2-------------------0-------0--2--2--0--2------------0---------|
   *  *  *  *  *                           *  *  *  *  *
            And when the fear is satisfied, I'll be forever changing..

Guitar 2 Lead: (1:47)
C---------------------------------------------------------------------|
G-----0-----------0-------------------0---------------0---------------|
D#-------0----------0-----0--------------0---------------0----------0-|
A#-2-------------------------4-----2-----------------------------4----|
F---------------3----------------------------------3------------------|
A#---------------------0--------------------------------------0-------|


PRE-CHORUS:
Guitar 1 Rhythm: (1:56)
C---------------------------------|
G---------------------------------|
D#--------------------------------|
A#-5-----------------------X-X----|
F--3-----------------------X-X----|
A#-------------------------X-X----|
         As we all realize!

Guitar 2 Lead: (1:56)
C---------------------------------|
G------0-------------3------------|
D#---------0------------0---------|
A#--------------------------------|
F--3-------------3----------------|
A#--------------------------------|

CHORUS 2:
Guitar 1 Rhythm: (2:00)
C--------------------------------------------------------------------------------|
G--------------------------------------------------------------------------------|
D#-------------------------------------------------------------5--5--5--5--5--5--|
A#-5--5--5--5--5--5----7--7--7--7--7--7----2--2--2--2--2--2----5--5--5--5--5--5--|
F--5--5--5--5--5--5----5--5--5--5--5--5----2--2--2--2--2--2----3--3--3--3--3--3--|
A#-5--5--5--5--5--5----4--4--4--4--4--4----2--2--2--2--2--2----------------------|
         So I'll wait for you, as I keep your faith alive!

Guitar 2 Lead: (2:00)
C--------------------------------------------------------------------------------|
G--8-------------------10------------------12------------------13-------15-------|
D#-x-x12---------------x--x12--------------x--x12--------------x--x6----x--x6----|
A#-5-------------------7-------------------9-------------------10-------12-------|
F--------------------------------------------------------------------------------|
A#-------------------------------------------------------------------------------|

Guitar 1 Rhythm: (2:09)
C--------------------------------------------------------------------------------|
G--------------------------------------------------------------------------------|
D#-------------------------------------------------------------5--5--5--5--5--5--|
A#-5--5--5--5--5--5----7--7--7--7--7--7----2--2--2--2--2--2----5--5--5--5--5--5--|
F--5--5--5--5--5--5----5--5--5--5--5--5----2--2--2--2--2--2----3--3--3--3--3--3--|
A#-5--5--5--5--5--5----4--4--4--4--4--4----2--2--2--2--2--2----------------------|
         And I'll pray for you, as we cross the great divide!

Guitar 2 Lead: (2:09)
C--------------------------------------------------------------------------------|
G--8-------------------10------------------12------------------13-------15-------|
D#-x-x12---------------x--x12--------------x--x12--------------x--x6----x--x6----|
A#-5-------------------7-------------------9-------------------10-------12-------|
F--------------------------------------------------------------------------------|
A#-------------------------------------------------------------------------------|

Guitar 1 Rhythm: (2:17)
C------------------------------------------------------------------------------|
G------------------------------------------------------------------------------|
D#--------------------------------4----5--5--5--5--5--5------------------------|
A#-2--2--2--2--2--2----0--0--0----4----5--5--5--5--5--5----5--5--5----7--7--7--|
F--2--2--2--2--2--2----0--0--0----2----3--3--3--3--3--3----5--5--5----5--5--5--|
A#-2--2--2--2--2--2----0--0--0-----------------------------5--5--5----4--4--4--|
               And I'll break for you as I open up the sky!

Guitar 2 Lead: (2:17)
C------------------------------------------------7--------------------7--------|
G--8--8--8--8--8--8----8--8--8----8----------8------8------------8----------8--|
D#-x--x--x--x--x--x----x--x--x----x--------------------------------------------|
A#-5--5--5--5--5--5----5--5--5----5----5-------------------5-------------------|
F------------------------------------------------------------------------------|
A#-----------------------------------------------------------------------------|

Guitar 1 Rhythm: (2:26)
C------------------------------------------------------------------------------|
G------------------------------------------------------------------------------|
D#--------------------------------4----5--5--5--5--5--5------------------------|
A#-2--2--2--2--2--2----0--0--0----4----5--5--5--5--5--5----5--5--5----7--7--7--|
F--2--2--2--2--2--2----0--0--0----2----3--3--3--3--3--3----5--5--5----5--5--5--|
A#-2--2--2--2--2--2----0--0--0-----------------------------5--5--5----4--4--4--|
               And I'll stay for you, as we cross the great divide!

Guitar 2 Lead: (2:26)
C------------------------------------------------7--------------------7--------|
G--8--8--8--8--8--8----8--8--8----8----------8------8------------8----------8--|
D#-x--x--x--x--x--x----x--x--x----x--------------------------------------------|
A#-5--5--5--5--5--5----5--5--5----5----5-------------------5-------------------|
F------------------------------------------------------------------------------|
A#-----------------------------------------------------------------------------|

BRIDGE:
Guitar 1 Rhythm: (2:34)
C----------------------------------------------------------------------------------|
G----------------------------------------------------------------------------------|
D#---------------------------------------------------------------------------------|
A#-1--1--1--1--1--1----3--3--3--3--3--3----5--5--5--5--5--5------------------------|
F--1--1--1--1--1--1----3--3--3--3--3--3----5--5--5--5--5--5-------0--1--1/3--1--0--|
A#-1--1--1--1--1--1----3--3--3--3--3--3----5--5--5--5--5--5----5-------------------|
            Follow the sunlight down!

Guitar 2 Lead: (2:34) Distortion/ Wah Effect
C--------------------------------------------------------------|
G--------------------------------------------------------------|
D#-7--7--7--12-12-12---14-14-14-14-14-14---12-12-12-12-12-12---|
A#-x--x--x--x--x--x----x--x--x--x--x--x----x--x--x--x--x--x----|
F--5--5--5--10-10-10---12-12-12-12-12-12---10-10-10-10-10-10---|
A#-------------------------------------------------------------|

Guitar 1 Rhythm: (2:43)
C----------------------------------------------------------------------------------|
G----------------------------------------------------------------------------------|
D#---------------------------------------------------------------------------------|
A#-1--1--1--1--1--1----3--3--3--3--3--3----5--5--5--5--5--5------------------------|
F--1--1--1--1--1--1----3--3--3--3--3--3----5--5--5--5--5--5-------0--1--1/3--1--0--|
A#-1--1--1--1--1--1----3--3--3--3--3--3----5--5--5--5--5--5----5-------------------|
            Cry clear and loud!

Guitar 2 Lead: (2:43) Wah
C--------------------------------------------------------------|
G--------------------------------------------------------------|
D#-7--7--7--12-12-12---14-14-14-14-14-14---12-12-12-12-12-12---|
A#-x--x--x--x--x--x----x--x--x--x--x--x----x--x--x--x--x--x----|
F--5--5--5--10-10-10---12-12-12-12-12-12---10-10-10-10-10-10---|
A#-------------------------------------------------------------|


Guitar 1 Rhythm: (2:52)
C----------------------------------------------------------------------------------|
G----------------------------------------------------------------------------------|
D#---------------------------------------------------------------------------------|
A#-1--1--1--1--1--1----3--3--3--3--3--3----5--5--5--5--5--5------------------------|
F--1--1--1--1--1--1----3--3--3--3--3--3----5--5--5--5--5--5-------0--1--1/3--1--0--|
A#-1--1--1--1--1--1----3--3--3--3--3--3----5--5--5--5--5--5----5-------------------|
            Heaven won't help us now!                                        But it's..

Guitar 2 Lead: (2:52) Wah
C--------------------------------------------------------------|
G--------------------------------------------------------------|
D#-7--7--7--12-12-12---14-14-14-14-14-14---12-12-12-12-12-12---|
A#-x--x--x--x--x--x----x--x--x--x--x--x----x--x--x--x--x--x----|
F--5--5--5--10-10-10---12-12-12-12-12-12---10-10-10-10-10-10---|
A#-------------------------------------------------------------|


Guitar 1 Rhythm: (3:00)
C------------------------------------------------------------------------------|
G------------------------------------------------------------------------------|
D#-----------------------------------------------------------------------------|
A#-1--1--1--1--1--1--1--1--1--1--1--1----3--3--3--3--3--3--3--3--3--3--3--3----|
F--1--1--1--1--1--1--1--1--1--1--1--1----3--3--3--3--3--3--3--3--3--3--3--3----|
A#-1--1--1--1--1--1--1--1--1--1--1--1----3--3--3--3--3--3--3--3--3--3--3--3----|
   Better this way, warm light wash me away..

Guitar 2 Lead: (3:00) Wah
C------------------------------------------------------------------------------|
G------------------------------------------------------------------------------|
D#-12-12-12-12-12-12-15-15-15-14-14-14---10-10-10-10-10-10-10-10-10-10-10-10---|
A#-x--x--x--x--x--x--x--x--x--x--x--x----x--x--x--x--x--x--x--x--x--x--x--x----|
F--10-10-10-10-10-10-13-13-13-12-12-12---8--8--8--8--8--8--8--8--8--8--8--8----|
A#-----------------------------------------------------------------------------|

CHORUS 3:

Fill in for the acoustic part of this Chorus. Played in Eb.

Guitar 1 Rhythm: (3:23)
C--------------------------------|
G--------------------------------|
D#--------5--5-------5--5--------|
A#--------5--5--X--X-5--5--X-X-X-|
F---------3--3--X--X-3--3--X-X-X-|
A#--------------X--X-------X-X-X-|
    As we cross the great divide!

Guitar 1 Rhythm: (3:26)
C--------------------------------------------------------------------------------|
G--------------------------------------------------------------------------------|
D#-------------------------------------------------------------5--5--5--5--5--5--|
A#-5--5--5--5--5--5----7--7--7--7--7--7----2--2--2--2--2--2----5--5--5--5--5--5--|
F--5--5--5--5--5--5----5--5--5--5--5--5----2--2--2--2--2--2----3--3--3--3--3--3--|
A#-5--5--5--5--5--5----4--4--4--4--4--4----2--2--2--2--2--2----------------------|
               And I'll break for you as I open up the sky!

Guitar 2 Lead: (3:26)
C------------------------------------------------7--------------------7--------|
G--8--8--8--8--8--8----8--8--8----8----------8------8------------8----------8--|
D#-x--x--x--x--x--x----x--x--x----x--------------------------------------------|
A#-5--5--5--5--5--5----5--5--5----5----5-------------------5-------------------|
F------------------------------------------------------------------------------|
A#-----------------------------------------------------------------------------|

Guitar 1 Rhythm: (3:34)
C--------------------------------------------------------------------------------|
G--------------------------------------------------------------------------------|
D#-------------------------------------------------------------5--5--5--5--5--5--|
A#-5--5--5--5--5--5----7--7--7--7--7--7----2--2--2--2--2--2----5--5--5--5--5--5--|
F--5--5--5--5--5--5----5--5--5--5--5--5----2--2--2--2--2--2----3--3--3--3--3--3--|
A#-5--5--5--5--5--5----4--4--4--4--4--4----2--2--2--2--2--2----------------------|
               And I'll stay for you, as we cross the great divide! 

Guitar 2 Lead: (3:34)
C------------------------------------------------7--------------------7--------|
G--8--8--8--8--8--8----8--8--8----8----------8------8------------8----------8--|
D#-x--x--x--x--x--x----x--x--x----x--------------------------------------------|
A#-5--5--5--5--5--5----5--5--5----5----5-------------------5-------------------|
F------------------------------------------------------------------------------|
A#-----------------------------------------------------------------------------|


OUTRO:
Guitar 1 & 2 (BOTH)
C-----------------------------------------------|
G-----------------------------------------------|
D#----------------------------------------------|
A#-------------------------------------3--------|
F--0h2p0h2-0h2h3p2p0h2-0h2-0h2-3p2--------2-----|
A#-0h2p0h2-0h2h3p2p0h2-0h2-0h2-----0h2-------5--|

C---------------------------------------------------|
G---------------------------------------------------|
D#--------------------------------------------------|
A#-X-3--x-3----5-3--x-3---0-3--x-3-------------0h3--|
F--X-3--x-3----5-3--x-3---0-3--x-3------------------|
A#-X-3--x-3----5-3--x-3---0-3--x-3--0--5p3-0h3------|

C--0-----|
G--0-----|
D#-x-----|
A#-2-----|
F--2-----|
A#-2-----|

-------------------------------------------------------------------------------
                             Ashes of Eden - Breaking Benjamin
                                     Dark Before Dawn
-------------------------------------------------------------------------------
Tabbed by: thirstforfood

Tuning: Drop-C   C G C F A D

Intro & Verse

d|---------------------------------------------------------------------------|
A|-------6----10------------6-----10--------6----10---------6--10--8---------|
F|---------------------------------------------------------------------------|
C|---------------------------------------------------------------------------|
G|------------------------------------------------------3--------------------|
C|---0----------------8------------------3-----------------------------------|  x4

Chorus

d|---------------------------------------------------------------------------|
A|-------6---10---------6---10------------6----10----------6----10-----------|
F|---------------------------------------------------------------------------|
C|---------------------------------------------------------------------------|
G|-------------------3-------------------------------------------------------|
C|----0-------------------------------8-----------------8--------------------|  x2

d|---------------------------------------------------------------------------|
A|------6---10------------6---10--------------6----10---------6--11--10------|
F|---------------------------------------------------------------------------|
C|---------------------------------------------------------------------------|
G|-------------------3-------------------------------------------------------|
C|---3------------------------------------8----------------8-----------------|  x2
Verse x3
Chorus x1
Break= Chorus x1
Chorus x1
************************************ 

Tabbed by: SoarStaraptor
Breaking Benjamin - Defeated
Tuning: Drop Bb

INTRO: (0:00) 
Guitar 1 
C-------------------------------------------------------------------------|
G-------------------------------------------------------------------------|
D#------------------------------------------------------------------------|
A#------------------------------------------------------------------------|
F--0---10-9---------10-9--------------0---10-9---------10-9---------------|
A#-0--------13-12~-------0-10-0-13\12-0--------13-12~-------13-10-0-10h13-|

C-------------------------------------------------------------------------|
G-------------------------------------------------------------------------|
D#------------------------------------------------------------------------|
A#-----------------------------------------------------X-1---X-3----------|
F--0---10-9---------10-9--------------0---10-9---------X-1---X-3----------|
A#-0--------13-12~-------0-10-0-13\12-0--------13-12~--X-1---X-3----------|
                                                           Slip away!
VERSE: (0:12) 
Guitar 1 (Hammer-on DISTORTION optional)
C--------------------------------------------------------------------------------------|
G--------------------------------------------------------------------------------------|
D--------------------------------------------------------------------------------------|
A#-5h---------------------------------------------------1h----------------3h-----------| x2
F--5h---------------------------------------------------1h----------------3h-----------|
A#-5h---------------------------------------------------1h----------------3h-----------|
                                     ..Falling out of place..     ..Fall down..
                                     ..Turn the lost away..       ..Fall down..

Guitar 2
C--------------------------------------------------------------------------------------|
G--------------------------------------------------------------------------------------|
D#------------10----------------------10---------------------10------------------------|
A#------8------------8----------8------------8---------8------------8-------7-8-10-8-7-| x2
F-------------------------------------------------------------------------8------------| 
A#-------------------------------------------------------------------------------------|
                                                                 

Guitar 1 (0:43) Hammer-on
C---------------------------------------------------------|
G---------------------------------------------------------|
D#--------------------------------------------------------|
A#-1h---------------------3h--------------------1---------| pick last note-
F--1h---------------------3h--------------------1---------| let ring
A#-1h---------------------3h--------------------1---------|

Guitar 2 (0:43)
C------------------------------------------------------|
G------------------------------------------------------|
D#-----------10----------------------------------------|
A#-----8------------8--------7---8--10---8---7--5------|
F--6-------------------8-------------------------------|
A#-----------------------------------------------------|
   *     And I'll be the fire..   Dries the flood..  

CHORUS: (0:43) (Both guitars played correspondingly with each other)
Guitar 1
C-------------------------------------------------------------------------|
G-------------------------------------------------------------------------|
D#------------------------------------------------------------------------|
A#-X-X-----X-5---5---5--5--5--5--5----3-3-----------1---1-1-1-1-1---3-3---|
F--X-X-----X-5---5--------------------3-3---1p0---0-1---1-1-1-1-1---3-3---|
A#-X-X-----X-5---5--------------------3-3-------3---1---1-1-1-1-1---3-3---|
   As I fight for one last prayer!          

Guitar 2 (0:43)
C-------------------------------------------------------------------------|
G---------------------------------------------------8----10---11----10----|
D---------------------------------------------------x-x4-x-x4-x-x4--x-x4--|
A#--------------------------------------------------5----7----8-----7-----|
F-------------------------------------------------------------------------|
A#------------------------------------------------------------------------|

Guitar 1 (0:49)
C---------------------------------------------------------------|
G---------------------------------------------------------------|
D#--------------------------------------------------------------|
A#-5---5---5--5--5--5--5----3-3-----------1----1-1-1-1-1----X-3-|
F--5---5--------------------3-3---1p0---0-1----1-1-1-1-1----X-3-|
A#-5---5--------------------3-3-------3---1----1-1-1-1-1----X-3-|
           No love to..                                     As I..

Guitar 2 (0:49)
C---------------------------------------------------------------|
G-----------------------------------------8----10----11---16----|
D#----------------------------------------x-x4-x-x4--x-x4-x-x4--|
A#----------------------------------------5----7-----8----13----|
F---------------------------------------------------------------|
A#--------------------------------------------------------------|

Guitar 1 (0:55)
C---------------------------------------------------------|
G---------------------------------------------------------|
D---------------------------------------------------------|
A#-5-5-5-5-----8-8---8---8-----1-----1--1-----------------|
F--5-5-5-5-----8-8---8---8-----1-----1--1---0h1h3---3p1---|
A#-5-5-5-5-----8-8---8---8-----1-----1--1---0h1h3---3p1---|
   Drag the devil down!                   I will stand alone.

Guitar 2 (0:55)
C-------------------------------------------------------|
G--15----------13--------------11-----------------------|
D#-x-x8--------x-x8------------x-x16--------------------|
A#-12----------10--------------8------------------------|
F-------------------------------------------------------|
A#------------------------------------------------------|

Guitar 1 (1:01)
C------------------------------------------------------------|
G------------------------------------------------------------|
D------------------------------------------------------------|
A#-5-5-5-5-----8-8---8---8---------X---X-------X---X-X-1-----|
F--5-5-5-5-----8-8---8---8---1p0---X---X-1p0---X---X-X-1-----|
A#-5-5-5-5-----8-8---8---8---1p0---X---X-1p0---X---X-X-1-----|
   No longer defeated!             

Guitar 2 (1:01)
C------------------------------------------------------------|
G--8-----------13--------------------------------------------|
D#-x-x8--------x-x8------------------------------------------|
A#-5-----------10------------------X---X-------X---X-X-1-----|
F----------------------------1p0---X---X-1p0---X---X-X-1-----|
A#---------------------------1p0---X---X-1p0---X---X-X-1-----|
                                    

Guitar 1 
C-------------------------------------------------------------------------|
G-------------------------------------------------------------------------|
D#------------------------------------------------------------------------|
A#------------------------------------------------------------------------|
F--0---10-9---------10-9--------------0---10-9---------10-9---------------|
A#-0--------13-12~-------0-10-0-13\12-0--------13-12~-------13-10-0-10h13-|

C-------------------------------------------------------------------------|
G-------------------------------------------------------------------------|
D#------------------------------------------------------------------------|
A#-----------------------------------------------------X-1---X-3----------|
F--0---10-9---------10-9--------------0---10-9---------X-1---X-3----------|
A#-0--------13-12~-------0-10-0-13\12-0--------13-12~--X-1---X-3----------|

VERSE 2:
Guitar 2 (1:19 - 1:41)
C--------------------------------------------------------------------------------------|
G--------------------------------------------------------------------------------------|
D#------------10----------------------10---------------------10------------------------|
A#------8------------8----------8------------8---------8------------8-------7-8-10-8-7-| x2
F-------------------------------------------------------------------------8------------| 
A#-------------------------------------------------------------------------------------|

Guitar 1 (1:42)
C---------------------------------------------------------|
G---------------------------------------------------------|
D#--------------------------------------------------------|
A#-1h-------------------------------------------1---------| pick last note-
F--1h-------------------------------------------1---------| let ring
A#-1h-------------------------------------------1---------|
             I'll be the cloud that hides the sun!

Guitar 2 (1:42)
C------------------------------------------------------|
G------------------------------------------------------|
D#-----------10----------------------------------------|
A#-----8------------8--------7---8--10---8---7--5------|
F--6-------------------8-------------------------------|
A#-----------------------------------------------------|

CHORUS 2:
Guitar 1 (1:50) (Both guitars played correspondingly with each other)
C-------------------------------------------------------------------------|
G-------------------------------------------------------------------------|
D#------------------------------------------------------------------------|
A#-X-X-----X-5---5---5--5--5--5--5----3-3-----------1---1-1-1-1-1---3-3---|
F--X-X-----X-5---5--------------------3-3---1p0---0-1---1-1-1-1-1---3-3---|
A#-X-X-----X-5---5--------------------3-3-------3---1---1-1-1-1-1---3-3---|
   As I fight for one last prayer!          

Guitar 2 (1:50)
C-------------------------------------------------------------------------|
G---------------------------------------------------8----10---11----10----|
D---------------------------------------------------x-x4-x-x4-x-x4--x-x4--|
A#--------------------------------------------------5----7----8-----7-----|
F-------------------------------------------------------------------------|
A#------------------------------------------------------------------------|

Guitar 1 (1:57)
C---------------------------------------------------------------|
G---------------------------------------------------------------|
D#--------------------------------------------------------------|
A#-5---5---5--5--5--5--5----3-3-----------1----1-1-1-1-1----X-3-|
F--5---5--------------------3-3---1p0---0-1----1-1-1-1-1----X-3-|
A#-5---5--------------------3-3-------3---1----1-1-1-1-1----X-3-|
           No love to..                                     As I..

Guitar 2 (1:57)
C---------------------------------------------------------------|
G-----------------------------------------8----10----11---16----|
D#----------------------------------------x-x4-x-x4--x-x4-x-x4--|
A#----------------------------------------5----7-----8----13----|
F---------------------------------------------------------------|
A#--------------------------------------------------------------|

Guitar 1 (2:02)
C---------------------------------------------------------|
G---------------------------------------------------------|
D---------------------------------------------------------|
A#-5-5-5-5-----8-8---8---8-----1-----1--1-----------------|
F--5-5-5-5-----8-8---8---8-----1-----1--1---0h1h3---3p1---|
A#-5-5-5-5-----8-8---8---8-----1-----1--1---0h1h3---3p1---|
   Drag the devil down!                   I will stand alone.

Guitar 2 (2:02)
C-------------------------------------------------------|
G--15----------13--------------11-----------------------|
D#-x-x8--------x-x8------------x-x16--------------------|
A#-12----------10--------------8------------------------|
F-------------------------------------------------------|
A#------------------------------------------------------|

Guitar 1 (2:08)
C------------------------------------------------------------|
G------------------------------------------------------------|
D------------------------------------------------------------|
A#-5-5-5-5-----8-8---8---8---------X---X-------X---X-X-1-----|
F--5-5-5-5-----8-8---8---8---1p0---X---X-1p0---X---X-X-1-----|
A#-5-5-5-5-----8-8---8---8---1p0---X---X-1p0---X---X-X-1-----|
   No longer defeated!             

Guitar 2 (2:08)
C------------------------------------------------------------|
G--8-----------13--------------------------------------------|
D#-x-x8--------x-x8------------------------------------------|
A#-5-----------10------------------X---X-------X---X-X-1-----|
F----------------------------1p0---X---X-1p0---X---X-X-1-----|
A#---------------------------1p0---X---X-1p0---X---X-X-1-----|

BREAK: (2:14)
Guitar 1
C------------------------------------------------------------------------------|
G------------------------------------------------------------------------------|
D#-----------------------------------------------------------------------------|
A#-----------------------------------------------------------------------------|
F------------------------------------1-1-X---1-X---1-1-1-X---1-X---1-1-1-X---1-|
A#-0-0-0-0-0-0-0-0-0-0-0-0-0-0-0-0---1-1-X---1-X---1-1-1-X---1-X---1-1-1-X---1-|
           I'm falling to pieces!                    Stained and used..

Guitar 2 (2:14)
C--------------------------------------------------------------------------------------|
G--10--------------13----------------11-11-X--11--X-11-11-11-X--11-X--11-11-11-X--11---|
D#-x--x8-----------x--x8-------------x--x--X--x---X-x--x--x--X--x--X--x--x--x--X--x----|
A#-7---------------10----------------8--8--X--8---X-8--8--8--X--8--X--8--8--8--X--8----|
F--------------------------------------------------------------------------------------|
A#-------------------------------------------------------------------------------------|

Guitar 1 (2:20)
C------------------------------------------------------------------------------|
G------------------------------------------------------------------------------|
D#-----------------------------------------------------------------------------|
A#-----------------------------------1-------1-----1-----3---3-----------------|
F------------------------------------1-------1-----1-----3---3-----------------|
A#-0-0-0-0-0-0-0-0-0-0-0-0-0-0-0-0---1-------1-----1-----3---3-----------------|
           I know what..       Need                It's not..

Guitar 2 (2:20)
C------------------------------------------------------------------------------|
G--10--------------13------15--------11--------------13------15----------------|
D#-x--x8-----------x--x4---x--x4-----x--x8-----------x--x4---x--x4-------------|
A#-7---------------10------12--------8---------------10------12----------------|
F------------------------------------------------------------------------------|
A#-----------------------------------------------------------------------------|

Guitar 1 (2:25)
C------------------------------------------------------------------|
G------------------------------------------------------------------|
D#-----------------------------------------------------------------|
A#-8---8---8---8---8---8---8---8---5---5---5---5---5---5---5---5---|
F--6---6---6---6---6---6---6---6---5---5---5---5---5---5---5---5---|
A#-5---5---5---5---5---5---5---5---5---5---5---5---5---5---5---5---|
   You!                                        It's not...

Guitar 2 (2:25)
C------------------------------------------------------------------|
G--11--11--11--11--16--16--16--16--15--15--15--15--15--15--15--15--|
D#-x---x---x---x---x---x---x---x---x---x---x---x---x---x---x---x---|
A#-8---8---8---8---13--13--13--13--12--12--12--12--12--12--12--12--|
F------------------------------------------------------------------|
A#-----------------------------------------------------------------|

Guitar 1 (2:31)
C----------------------------------------------------------|
G----------------------------------------------------------|
D#---------------------------------------------------------|
A#-3---3---3---3---3---3---3---3---1---1---1---1---1---1---|
F--3---3---3---3---3---3---3---3---1---1---1---1---1---1---|
A#-3---3---3---3---3---3---3---3---1---1---1---1---1---1---|
   You!..
Guitar 2 (2:31)
C----------------------------------------------------------|
G--13--13--13--13--13--13-/15--15--11--11--11--11--11--11--|
D#-x---x---x---x---x---x---x---x---x---x---x---x---x---x---|
A#-10--10--10--10--10--10-/12--12--8---8---8---8---8---8---|
F----------------------------------------------------------|
A#---------------------------------------------------------|

CHORUS 3:
Guitar 1 (2:36)           pause
C------------------------------------------------------------|
G------------------------------------------------------------|
D#-----------------------------------------------------------|
A#-X-X-----X-5---5---X-----------------1---1-1-1-1-1---3-3---|
F--X-X-----X-5---5---X-----------------1---1-1-1-1-1---3-3---|
A#-X-X-----X-5---5---X-----------------1---1-1-1-1-1---3-3---|
   As I fight for one last prayer!          

Guitar 2 (2:36)
C------------------------------------------------------------|
G--------------------------------------8----10---11----10----|
D--------------------------------------x-x4-x-x4-x-x4--x-x4--|
A#-------------------------------------5----7----8-----7-----|
F------------------------------------------------------------|
A#-----------------------------------------------------------|

Guitar 1 (2:43)
C---------------------------------------------------------------|
G---------------------------------------------------------------|
D#--------------------------------------------------------------|
A#-5---5---5--5--5--5--5----3-3-----------1----1-1-1-1-1----X-3-|
F--5---5--------------------3-3---1p0---0-1----1-1-1-1-1----X-3-|
A#-5---5--------------------3-3-------3---1----1-1-1-1-1----X-3-|
           No love to..                                     As I..
      
Guitar 2 (2:43)
C------------------------------------------------------------------|
G-----------------------------------------8----10----11-----X-13---|
D#----------------------------------------x-x4-x-x4--x-x4---X-x----|
A#----------------------------------------5----7-----8------X-10---|
F------------------------------------------------------------------|
A#-----------------------------------------------------------------|

Guitar 1 (2:49)
C-------------------------------------------------------------------------|
G-------------------------------------------------------------------------|
D#------------------------------------------------------------------------|
A#-5-5---5---X-5---X---5-5-3-3---X-3---X-3-3-1-1---X-1-X---1-1------------|
F--5-5---5---X-5---X---5-5-3-3---X-3---X-3-3-1-1---X-1-X---1-1------------|
A#-5-5---5---X-5---X---5-5-3-3---X-3---X-3-3-1-1---X-1-X---1-1-0--3-1-0-1-|
   Drag the devil..      

Guitar 2 (2:49)
C---------------------------------------------------------------------|
G--15----------------------13----------------11-----------------------|
D#-x-x8--------------------x-x8--------------x-x8---------------------|
A#-12----------------------10----------------8------------------------|
F---------------------------------------------------------------------|
A#--------------------------------------------------------------------|

Guitar 1 (2:55)
C---------------------------------------------------------------|
G---------------------------------------------------------------|
D---------------------------------------------------------------|
A#-5-5-5-5-----8-8---8---8-----1-----1---1-----1-1--------------|
F--5-5-5-5-----8-8---8---8-----1-----1---1-----1-1--------------|
A#-5-5-5-5-----8-8---8---8-----1-----1---1-----1-1----3-3-0-7---|
       No longer defeated!

Guitar 2 (2:55)
C-------------------------------------------------------|
G--8-----------13--------------11-----------------------|
D#-x-x8--------x-x8------------x-x8---------------------|
A#-5-----------10--------------8------------------------|
F-------------------------------------------------------|
A#------------------------------------------------------|

Guitar 1 (3:00)
C---------------------------------------------------------------|
G---------------------------------------------------------------|
D---------------------------------------------------------------|
A#-5-5-5-5-----8-8---8---8-----1-----1---1-----1-1--------------|
F--5-5-5-5-----8-8---8---8-----1-----1---1-----1-1--------------|
A#-5-5-5-5-----8-8---8---8-----1-----1---1-----1-1----3p0-8\7---|
       No longer defeated!

Guitar 2 (3:00)
C-------------------------------------------------------|
G--8-----------13--------------11-----------------------|
D#-x-x8--------x-x8------------x-x8---------------------|
A#-5-----------10--------------8------------------------|
F-------------------------------------------------------|
A#------------------------------------------------------|

Guitar 1 (3:06)                
C---------------------------------------------------------------|
G---------------------------------------------------------------|
D---------------------------------------------------------------|
A#-5-5-5-5-----8-8---8---8-----1--------------------------------| last barre chord fades out
F--5-5-5-5-----8-8---8---8-----1--------------------------------|
A#-5-5-5-5-----8-8---8---8-----1--------------------------------|
       No longer defeated!           

C-------------------------------------------------------|
G--8-----------13--------------11-----------------------|
D#-x-x8--------x-x8------------x------------------------| last note fades out
A#-5-----------10--------------8------------------------|
F-------------------------------------------------------|
A#------------------------------------------------------|  

Tabbed by: SoarStaraptor
Breaking Benjamin - Dawn
Tuning: Drop Bb


(0:09)
C-------------------------------------------------|
G-------------------------------------------------|
D#----------2-------------2-------------2---------|
A#------3-------------3-------------3---------3---| x2
F-------------------------------1-----------------|
A#-0--------------3-------------------------------|


(0:29 - 0:48)
Guitar 1
C-------------------------------------------------------|
G-------------------------------------------------------|
D#----------2-----------------2---------------2---------|
A#------3-----------------3---------------3---------3---| x2
F-------------------------------------1-----------------|
A#-0------------------3---------------------------------|


(0:29)
Guitar 2
C------13---12------------------------------------------|
G--------------13-\-10-------10--13-10------------------|
D#------------------------12----------------------------|
A#------------------------------------------------------|
F-------------------------------------------------------|
A#------------------------------------------------------|

Guitar 2 continued..
C------13---12------------------------------------------|
G--------------13-\-10-------10--13---10----------------|
D#------------------------12----------------------------|
A#------------------------------------------------------|
F-------------------------------------------------------|
A#------------------------------------------------------|


PART 2: PLAY TWICE
Guitar 1 (0:49) (1:10)
C--------------------------------------------------------------|
G----------1------------------1------------1---------------1---|
D#-------------------------------------0---------------0-------|
A#-----3---------------3---------------------------------------|
F----------------------------------3---------------3-----------|
A#-3---------------3-------------------------------------------|

Guitar 2 (0:49) (1:10)
C---------8---------------8---------------8---------------8------|
G------------10--------------10--------------10--------------10--|
D#-9--10-----------9--10-----------9--10-----------9--10---------|
A#---------------------------------------------------------------|
F----------------------------------------------------------------|
A#---------------------------------------------------------------|


Guitar 1 (1:00) (1:20)
C--------------------------------------------------------------|
G----------1------------------1------------1---------------1---|
D#-------------------------------------------------------------|
A#-----3---------------3---------------3---------------3-------|
F----------------------------------1---------------1-----------|
A#-0---------------0-------------------------------------------|

Guitar 2 (1:00) (1:20)
C---------8---------------8---------------8---------------8------|
G------------10--------------10--------------10--------------10--|
D#-9--10-----------9--10-----------9--10-----------9--10---------|
A#---------------------------------------------------------------|
F----------------------------------------------------------------|
A#---------------------------------------------------------------|


END WITH:
Guitar 1
C------|
G------|
D#-----|
A#-----|
F------|
A#-3---|

Guitar 2
C------|
G------|
D#-10--|
A#-----|
F------|
A#-----|
Добавлено: 22.08.2015
Другие материалы по этой песне:
  • Аккорды и текст

Страница создана 22.08.2015
http://primanota.ru/breaking-benjamin/dark-before-dawn-album-chords.htm
Привет, Гость.
Предлагаем пройти революционный курс по гитаре.
Подарок от PrimaNota.Ru, забирай!