PrimaNota.ru - самый крупный в мире бесплатный архив песенных текстов, аккордов, табулатур и нот


Breaking Benjamin - Dark - таба, видео

Регистрация Запомнить меня
Войти через:  Facebook Google Twitter Vk Yandex Mail.ru

Breaking Benjamin - Dark - таба, видео

Печатать
Просмотров: 154
Tabbed by: SoarStaraptor


Breaking Benjamin - Dark 'Tab'

This is the first track off "Dark Before Dawn".

This is the album intro basically. Here ya go!


Tuning: Drop A#

Guitar 2: (0:08) Clean
C--------------------------------------------------------------------------------|
G--------------------------------------------------------------------------------|
D#-------------------------------------------------------------------------------|
A#-------------------------------------------------------------------------------|
F--10---12---12---12---10---12---13---13---10---12---12---12---12---12---12---12-|
A#----0----0----0----0----0----0----0----0----0----0----0----0----0----0----0----|


Guitar 2: (0:16) Clean
C-----------------------------------------------------------------------------|
G-----------------------------------------------------------------------------|
D-----------------------------------------------------------------------------|
A#----------------------------------------------------------------------------|
F----10---12---12---12---10---12---13---13---10---9---9---9---9---9---9---9---|
A#-0----0----0----0----0----0----0----0----0----0---0---0---0---0---0---0---0-|


Guitar 2: (0:25) Clean
C--------------------------------------------------------------------------------|
G--------------------------------------------------------------------------------|
D#-------------------------------------------------------------------------------|
A#-------------------------------------------------------------------------------|
F--10---12---12---12---10---12---13---13---10---12---12---12---12---12---12---12-|
A#----0----0----0----0----0----0----0----0----0----0----0----0----0----0----0----|

Guitar 2: (0:33)
C-----------------------------------------------------------------------------|
G-----------------------------------------------------------------------------|
D-----------------------------------------------------------------------------|
A#----------------------------------------------------------------------------|
F----10---12---12---12---10---12---13---13---10---9---9---9---9---9---9---9---|
A#-0----0----0----0----0----0----0----0----0----0---0---0---0---0---0---0---0-|


Guitar 1: (0:41) DISTORTION (Fuzz)
C-----------------------------------------------------------------------------|
G-----------------------------------------------------------------------------|
D#----------------------------------------------------------------------------|
A#----------------------------------------------------------------------------|
F-----------------------------------------------------------------------------|
A#-0-0-x---------------0-0-x-------0-x-----0-0-x------------0-0-x-------0-x---|

Guitar 2: (0:41)
C-----------------------------------------------------------------------------|
G-----------------------------------------------------------------------------|
D-----------------------------------------------------------------------------|
A#----------------------------------------------------------------------------|
F----10---12---12---12---10---12---13---13---10---9---9---9---9---9---9---9---|
A#-0----0----0----0----0----0----0----0----0----0---0---0---0---0---0---0---0-|

Guitar 1: (0:49)
C-----------------------------------------------------------------------------|
G-----------------------------------------------------------------------------|
D#----------------------------------------------------------------------------|
A#----------------------------------------------------------------------------|
F-----------------------------------------------------------------------------|
A#-0-0-x---------------0-0-x-------0-x-----0-0-x------------0-0-x-------0-x---|

Guitar 2: (0:49)
C--------------------------------------------------------------------------------|
G--------------------------------------------------------------------------------|
D#-------------------------------------------------------------------------------|
A#-------------------------------------------------------------------------------|
F--10---12---12---12---10---12---13---13---10---12---12---12---12---12---12---12-|
A#----0----0----0----0----0----0----0----0----0----0----0----0----0----0----0----|


Guitar 1: (0:58)
C-----------------------------------------------------------------------------|
G-----------------------------------------------------------------------------|
D#----------------------------------------------------------------------------|
A#----------------------------------------------------------------------------|
F-----------------------------------------------------------------------------|
A#-0-0-x------0-x------0-0-x-------0-x-----0-0-x------------0-0-X-------0-x---|

Guitar 2: (0:58)
C-----------------------------------------------------------------------------|
G-----------------------------------------------------------------------------|
D-----------------------------------------------------------------------------|
A#----------------------------------------------------------------------------|
F----10---12---12---12---10---12---13---13---10---9---9---9---9---9---9---9---|
A#-0----0----0----0----0----0----0----0----0----0---0---0---0---0---0---0---0-|


CHORUS:
Guitar 1: (1:06) DISTORTION
C--------------------------------------------------------------------|
G--------------------------------------------------------------------|
D#-------------------------------------------------------------------|
A#-8---8---8---8---8---8---8---8-----0---0---0---0---0---0---0---0---|
F--8---8---8---8---8---8---8---8-----0---0---0---0---0---0---0---0---|
A#-8---8---8---8---8---8---8---8-----0---0---0---0---0---0---0---0---|

Guitar 2: (1:06) Clean
C--10--10------------------12--12----13----------------------12--12-----|
G-----------------------------------------------------------------------|
D#----------------------------------------------------------------------|
A#----------------------------------------------------------------------|
F-----------------------------------------------------------------------|
A#----------------------------------------------------------------------|

Guitar 1: (1:15)
C----------------------------------------------------------------------|
G----------------------------------------------------------------------|
D#---------------------------------------------------------------------|
A#-8---8---8---8---8---8---8---8-----0---0---0---0---0---0---0---0-----|
F--8---8---8---8---8---8---8---8-----0---0---0---0---0---0---0---0-----|
A#-8---8---8---8---8---8---8---8-----0---0---0---0---0---0---0---0-----|


Guitar 2: (1:15)
C--10--10------------------12--12----13----------------------12--12-----|
G-----------------------------------------------------------------------|
D#----------------------------------------------------------------------|
A#----------------------------------------------------------------------|
F-----------------------------------------------------------------------|
A#----------------------------------------------------------------------|

Guitar 1: (1:24)
C----------------------------------------------------------------------|
G----------------------------------------------------------------------|
D#---------------------------------------------------------------------|
A#-8---8---8---8---8---8---8---8-----5---5---5---5---5---5---5---5--x--|
F--8---8---8---8---8---8---8---8-----5---5---5---5---5---5---5---5--x--|
A#-8---8---8---8---8---8---8---8-----5---5---5---5---5---5---5---5--x--|

Guitar 2: (1:24)
C--10--10----------------------------15--15-----------------------------|
G-----------------------------------------------------------------------|
D#----------------------------------------------------------------------|
A#----------------------------------------------------------------------|
F-----------------------------------------------------------------------|
A#----------------------------------------------------------------------|


END: PLAY TWICE
Guitar 2: (1:31) Clean
C--------------------------------------------------------------------------------|
G--------------------------------------------------------------------------------|
D#-------------------------------------------------------------------------------|
A#-------------------------------------------------------------------------------|
F--10---12---12---12---10---12---13---13---10---12---12---12---12---12---12---12-|
A#----0----0----0----0----0----0----0----0----0----0----0----0----0----0----0----|

Guitar 2: (1:40) Clean
C-----------------------------------------------------------------------------|
G-----------------------------------------------------------------------------|
D-----------------------------------------------------------------------------|
A#----------------------------------------------------------------------------|
F----10---12---12---12---10---12---13---13---10---9---9---9---9---9---9---9---|
A#-0----0----0----0----0----0----0----0----0----0---0---0---0---0---0---0---0-|


That's all she wrote!


Key:
x = stop note
Добавлено: 22.08.2015
Другие материалы по этой песне:
  • Аккорды и текст

Страница создана 22.08.2015
http://primanota.ru/breaking-benjamin/dark-chords.htm
Привет, Гость.
Предлагаем пройти революционный курс по гитаре.
Подарок от PrimaNota.Ru, забирай!