PrimaNota.ru - самый крупный в мире бесплатный архив песенных текстов, аккордов, табулатур и нот


Breaking Benjamin - Dawn - таба, видео

Регистрация Запомнить меня
Войти через:  Facebook Google Twitter Vk Yandex Mail.ru

Breaking Benjamin - Dawn - таба, видео

Печатать
Просмотров: 121
Tabbed by: SoarStaraptor


Breaking Benjamin - Dawn 'Tab'


This is basically the outro of the album "Dark Before Dawn" Song is CLEAN effect throughout.

Here ya go!


Tuning: Drop Bb


(0:09)
C-------------------------------------------------|
G-------------------------------------------------|
D#----------2-------------2-------------2---------|
A#------3-------------3-------------3---------3---| x2
F-------------------------------1-----------------|
A#-0--------------3-------------------------------|


(0:29 - 0:48)
Guitar 1
C-------------------------------------------------------|
G-------------------------------------------------------|
D#----------2-----------------2---------------2---------|
A#------3-----------------3---------------3---------3---| x2
F-------------------------------------1-----------------|
A#-0------------------3---------------------------------|


(0:29)
Guitar 2
C------13---12------------------------------------------|
G--------------13-\-10-------10--13-10------------------|
D#------------------------12----------------------------|
A#------------------------------------------------------|
F-------------------------------------------------------|
A#------------------------------------------------------|

Guitar 2 continued..
C------13---12------------------------------------------|
G--------------13-\-10-------10--13---10----------------|
D#------------------------12----------------------------|
A#------------------------------------------------------|
F-------------------------------------------------------|
A#------------------------------------------------------|


PART 2: PLAY TWICE
Guitar 1 (0:49) (1:10)
C--------------------------------------------------------------|
G----------1------------------1------------1---------------1---|
D#-------------------------------------0---------------0-------|
A#-----3---------------3---------------------------------------|
F----------------------------------3---------------3-----------|
A#-3---------------3-------------------------------------------|

Guitar 2 (0:49) (1:10)
C---------8---------------8---------------8---------------8------|
G------------10--------------10--------------10--------------10--|
D#-9--10-----------9--10-----------9--10-----------9--10---------|
A#---------------------------------------------------------------|
F----------------------------------------------------------------|
A#---------------------------------------------------------------|


Guitar 1 (1:00) (1:20)
C--------------------------------------------------------------|
G----------1------------------1------------1---------------1---|
D#-------------------------------------------------------------|
A#-----3---------------3---------------3---------------3-------|
F----------------------------------1---------------1-----------|
A#-0---------------0-------------------------------------------|

Guitar 2 (1:00) (1:20)
C---------8---------------8---------------8---------------8------|
G------------10--------------10--------------10--------------10--|
D#-9--10-----------9--10-----------9--10-----------9--10---------|
A#---------------------------------------------------------------|
F----------------------------------------------------------------|
A#---------------------------------------------------------------|


END WITH:
Guitar 1
C------|
G------|
D#-----|
A#-----|
F------|
A#-3---|

Guitar 2
C------|
G------|
D#-10--|
A#-----|
F------|
A#-----|


That's all she wrote!


Key:
\ = slide down
Добавлено: 22.08.2015
Другие материалы по этой песне:
  • Аккорды и текст

Страница создана 22.08.2015
http://primanota.ru/breaking-benjamin/dawn-chords.htm
Привет, Гость.
Предлагаем пройти революционный курс по гитаре.
Подарок от PrimaNota.Ru, забирай!