PrimaNota.ru - самый крупный в мире бесплатный архив песенных текстов, аккордов, табулатур и нот


Born Of Osiris - Vengeance - таба, видео

Регистрация Запомнить меня
Войти через:  Facebook Google Twitter Vk Yandex Mail.ru

Born Of Osiris - Vengeance - таба, видео

Печатать
Просмотров: 362
I know this is for a seven string guitar, it can be played on a six string.

D-G-C-F-A-D (whole step down)




---------------8-13p8-------------------------8-13p8-----------------------|
------------10--------10-------------------10--------10--------------------|
---------10-------------10--------------10--------------10-----------------|
------10------------------10---------10-------------------10---------------|
-8-12------------------------12-8-12------------------------12-------------|
---------------------------------------------------------------------------|
                      T                              T
--------------8-13p8-17p12p8-------------------8h12-17p12p8----------------|
-----------10----------------10-------------10--------------10-------------|
--------10---------------------9----------9--------------------9-----------|
------10-------------------------10----10------------------------10--------|
-8-12-------------------------------12-------------------------------------|
---------------------------------------------------------------------------|
                  T                      T
------------8h12-17p12p8-----------------24p20p17h20p17/13h17p13h17---------|
---------10--------------10-------------------------------------------------|
-------9--------------------9-----------------------------------------------|
----10------------------------10----10--------------------------------------|
-12------------------------------12-----------------------------------------|
----------------------------------------------------------------------------|
 T                         T
-24p20p17h20p17/13h17p13---24p20p17h20p17/13h17p13-----12----------12----12--|
----------------------------------------------------13---13------13----13----|
-----------------------------------------------------------14--14----14------|
-------------------------------------------------------------15--------------|
-----------------------------------------------------------------------------|
-----------------------------------------------------------------------------|
       T        T        T                       T        T
-17-20-22p20p17-24p20p17-22p20p17----------17-20-24p20p17-22p20p17/20-20-------|
---------------------------------17------17-----------------------------22-----|
-----------------------------------17--17---------------------------------21---|
-------------------------------------19-------------------------------------22-|
-------------------------------------------------------------------------------|
-------------------------------------------------------------------------------|

CONTINUED (MAIN SWEEPS)
                 T                               T
------------8h12-17p12p8--------------------8h12-17p12p8---------------------|
---------10--------------10--------------10--------------10------------------|
-------9--------------------9----------9--------------------9----------------|
----10------------------------10----10------------------------10-------------|
-12------------------------------12------------------------------------------|
-----------------------------------------------------------------------------|
                 T                             T
------------8h12-17p12/11p7---------------7h11-16p11p7h11p7------------------|
---------10-----------------9-----------9-------------------9----------------|
-------9----------------------8-------8-----------------------8--------------|
----10--------------------------9---9---------------------------9------------|
-12-------------------------------11-----------------------------------------|
-----------------------------------------------------------------------------|
                T                               T
----------7h11-16p11p7h11p7----------------8h12-17p12p8------------------------|
--------9-------------------9-----------10--------------10---------------------|
------8-----------------------8-------9--------------------9-------------------|
----9------------------------------10------------------------10----------------|
-11-----------------------------12-------------------------------CONTINUE------|
-------------------------------------------------------------------------------|

ENDING
----------7h11-16p11p7h11p7--------------------------------------------------|
--------9-------------------9------------------------------------------------|
------8-----------------------8----------------------------------------------|
----9---------------------------9--------------------------------------------|
-11--------------------------------------------------------------------------|
-----------------------------------------------------------------------------|
Добавлено: 16.09.2013
Другие материалы по этой песне:

Страница создана 16.09.2013
http://primanota.ru/born-of-osiris/vengeance-chords.htm
Привет, Гость.
Предлагаем пройти революционный курс по гитаре.
Подарок от PrimaNota.Ru, забирай!