PrimaNota.ru - самый крупный в мире бесплатный архив песенных текстов, аккордов, табулатур и нот


Bonfire - I Need You - таба, видео

Регистрация Запомнить меня
Войти через:  Facebook Google Twitter Vk Yandex Mail.ru

Bonfire - I Need You - таба, видео

Печатать
Просмотров: 319
Авторы: Hans Ziller, Claus Lessmann

Auther/Artist:Bonfire
Title:I Need You


I do not show exact timing u have to listen to the song


Tune a 1/2 step down

Intro:Guitar 1
Eb--1------------------------1--------------------------------------|
Bb--1------------------------1------------------------5-------------|
Gb--2------------------------2------------------------5-------------|
Db--3------------------------3------------------------5-------------|
Ab--3------------------------3------------------------3-------------|
Eb--1------------------------1--------------------------------------|

Guitar 2(use fingers it sounds better)
Eb------------------------------------------------------------------|
Bb-----1-1--5-5-----------1-----1-1--5-5--------------5--3h5p3------|
Gb-----0-0--5-5--5-/-7--0-0-----0-0--5-5---5-/-7----5-5--------5----|
Db--------------(5)/(7)-------------------(5)/(7)-------------------|
Ab------------------------------------------------------------------|
Eb------------------------------------------------------------------|

Intro Lead:Guitar 3
Eb--------------------|
Bb--5--6--8--8~-------|
Gb--------------------|
Db--------------------|
Ab--------------------|
Eb--------------------|

Eb-------------------|
Bb--8-8-6-5-5--------|
Gb------------5h7-5--|
Db-------------------|
Ab-------------------|
Eb-------------------|

Eb---------------|
Bb-------8-------|
Gb--5/7----------|
Db---------------|
Ab---------------|
Eb---------------|

Verse 1:Guitar 1
Eb--1------------------------1----------------|
Bb--1------------------------1------------5---|
Gb--2------------------------2------------5---|
Db--3------------------------3------------5---|
Ab--3------------------------3------------3---|
Eb--1------------------------1----------------|

Guitar 2
Eb--------------------------------------------|
Bb-----1-1--5-5-----------1-----1-1--3-3--5---|
Gb-----0-0--5-5--5-/-7--0-0-----0-0--2-2--5---|
Db--------------(5)/(7)-----------------------|
Ab--------------------------------------------|
Eb--------------------------------------------|

I wish that you could read my mind
And see the words I hind
Sometimes a mans not man enough
Cause hes too full of pride

PreChorus:
Eb-1-------------------1-------------------1------------------------|
Bb-1--1-1-3-3-5-5---5--1--1-1-3-3-5-5---5--1--1-1-3-3-5-5---5-------|
Gb-2--0-0-2-2-5-5-5-5--2--0-0-2-2-5-5-5-5--2--0-0-2-2-5-5-5-5-------|
Db-3--------------5----3--------------5----3--------------5---------|
Ab-3-------------------3-------------------3------------------------|
Eb-1-------------------1-------------------1------------------------|

Eb--1---------------------------|
Bb--1--1-1-3-3-5-5-3------------|
Gb--2--0-0-2-2-5-5-2------------|
Db--3---------------------------|
Ab--3---------------------------|
Eb--1---------------------------|

I tried to live without you
I didn't make a day without
your love and ?
Let me say

Chorus:

         C   D  F        C
I wanna lay my arms around you

     F         C     G
and tell you i love you

              C   D   F       C
Just like the roses need the water

 F     G     C   F      G    C
baby I need you,baby I need you

Verse 2:

You got a way to make me feel
like no has before
I watch you sleep and wonder why
I close an open door

Chorus

Solo:(use fingers it sounds better)
Eb----------------------------------------------------------------------------------|
Bb--1--1h3--1--3-3--5--5--3--1---1-1--3-3-5-3---1-----8---8-8--5-5--3--1--1--3------|
Gb--0--0-0--0--0-0--5--5--0--0---0-0--0-0-5-0---0--4--7---7-7--5-5--0--0--0--0------|
Db----------------------------------------------------------------------------------|
Ab----------------------------------------------------------------------------------|
Eb----------------------------------------------------------------------------------|
Добавлено: 24.02.2012
Другие материалы по этой песне:
  • Аккорды и текст

Страница создана 24.02.2012
http://primanota.ru/bonfire/i-need-you-chords.htm
Привет, Гость.
Предлагаем пройти революционный курс по гитаре.
Подарок от PrimaNota.Ru, забирай!