PrimaNota.ru - самый крупный в мире бесплатный архив песенных текстов, аккордов, табулатур и нот


Bonfire - Under Blue Skies - таба, видео

Регистрация Запомнить меня
Войти через:  Facebook Google Twitter Vk Yandex Mail.ru

Bonfire - Under Blue Skies - таба, видео

Печатать
Просмотров: 204
Авторы: Hans Ziller, Claus Lessmann

-------------------------------------------------------------------------------
		    Under Blue Skies - by Bonfire
-------------------------------------------------------------------------------
Tabbed by: Andy (yalaki)
Email: yalaki@hotmail.com

Official Bonfire website: http://www.bonfire.de/


This is quite a nice easy song to play. The solo parts aren't too challenging
and the rhythm parts are simple and enjoyable.

Throughout I have written C#5 as (9-11-11) with the root on the E string.
You may choose to play it as (4-4-6-6) with the root on the A string instead.

I hope you enjoy it!

Any questions, comments, errors, remarks, requests etc: yalaki@hotmail.com


Tuning: Standard

This song is written for two guitars, a rhythm and a lead.

******
Intro:
******

n.b play the muted notes (x) as you feel they should be played - i have added them as a
rough guide. Also you may like to strike the power chords a couple of times.
I suggest you listen to the CD carefully to get a good feel for this riff.

*Rhythm Guitar*:
								 Play 4 times
e|---------------------------------------------------------------------------|
B|o-------------------------------------------------------------------------o|
G|---------------------------------------------------------------------------|
D|---11-------11-------11-----------7-------7-------9------------------------|
A|o--11--x-x--11--x-x--11--x-x-x-x--7--x-x--7--x-x--9--x-x-x-x--------------o|
E|---9---x-x--9---x-x--9---x-x-x-x--5--x-x--5--x-x--7--x-x-x-x---------------|


*Lead Gutiar*:


e|---------------------------------------------------------------------------|
B|------------------------------------------------------------14-16----------|
G|-----------------------------------------------------11/13-----------------|
D|---------------------------------------------------------------------------|
A|---------------------------------------------------------------------------|
E|---------------------------------------------------------------------------|


e|---------------------------------------------------------------------------|
B|--16b17-r16------------------14-16-16b17r16-14-12-14~~---------------------|
G|-----------------------11/13-----------------------------------------------|
D|---------------------------------------------------------------------------|
A|---------------------------------------------------------------------------|
E|---------------------------------------------------------------------------|

e|---------------------------------------------------------------------------|
B|--------------------12-----------------------------------------------------|
G|--11b13-r11p9-11/13----11~-------------------------------------------------|
D|---------------------------------------------------------------------------|
A|---------------------------------------------------------------------------|
E|---------------------------------------------------------------------------|

********
Verse 1:
********

"Who'll be a beggar, and who'll be a queen?..."


e|---------------|----------------------------------------------------------------|
B|---------------|----------------------------------------------------------------|
G|---------------|----------------------------------------------------------------|
D|---11----------|---11-------11-------11-----------7-------7-------9-------------|
A|---11------x\--|---11--x-x--11--x-x--11--x-x-x-x--7--x-x--7--x-x--9--x-x-x-x----|
E|---9-------x\--|---9---x-x--9---x-x--9---x-x-x-x--5--x-x--5--x-x--7--x-x-x-x----|
    hold

"Who'll be a coward, and who a marine?..."

e|-----------------|----------------------------------------------------------------|
B|-----------------|----------------------------------------------------------------|
G|-----------------|----------------------------------------------------------------|
D|-11--11----------|---11-------11-------11-----------7-------7-------9-------------|
A|-11--11------x\--|---11--x-x--11--x-x--11--x-x-x-x--7--x-x--7--x-x--9--x-x-x-x----|
E|-9---9-------x\--|---9---x-x--9---x-x--9---x-x-x-x--5--x-x--5--x-x--7--x-x-x-x----|
      hold

"Who'll be a poor man and who a millionaire?..."

e|---------------------------------------------------------------------------|
B|---------------------------------------------------------------------------|
G|---------------------------------------------------------------------------|
D|--7-------7-------7-----------9-------9-------9----------------------------|
A|--7--x-x--7--x-x--7--x-x-x-x--9--x-x--9--x-x--9--x-x-x-x-------------------|
E|--5--x-x--5--x-x--5--x-x-x-x--7--x-x--7--x-x--7--x-x-x-x-------------------|


"Who'll be a man in despair?..."

e|-------------------------------------------------|
B|-------------------------------------------------|
G|-------------------------------------------------|
D|--7-------7-------7-----------6------------------|
A|--7--x-x--7--x-x--7--x-x-x-x--6------------------|
E|--5--x-x--5--x-x--5--x-x-x-x--4------------------|


*******
Chorus:
*******


Rhythm Guitar and Lead Guitar (fills) on alternate lines.


"Under blue skies, we all play the game..."

e|---------------------------------------------------------------------------|
B|---------------------------------------------------------------------------|
G|---------------------------------------------------------------------------|
D|---11-------11-------11-----------7-------7-------9------------------------|
A|---11--x-x--11--x-x--11--x-x-x-x--7--x-x--7--x-x--9--x-x-x-x---------------|
E|---9---x-x--9---x-x--9---x-x-x-x--5--x-x--5--x-x--7--x-x-x-x---------------|

e|---------------------------------------------------------------------------|
B|---------------------------------------------------------------------------|
G|---------------------------------------------------------------------------|
D|---------------------------------------------------------------------------|
A|---------------------------------------------------------------------------|
E|---------------------------------------------------------------------------|

******************************************************************************


e|---------------------------------------------------------------------------|
B|---------------------------------------------------------------------------|
G|---------------------------------------------------------------------------|
D|---11-------11-------6------------7-------7-------9------------------------|
A|---11--x-x--11--x-x--6---x-x-x-x--7--x-x--7--x-x--9--x-x-x-x---------------|
E|---9---x-x--9---x-x--4---x-x-x-x--5--x-x--5--x-x--7--x-x-x-x---------------|

e|---------------------------------------------------------------------------|
B|----------------------------------------------------14--12-14--------------|
G|---------------------------------------------------------------------------|
D|----------------------------------------------------11--9--11--------------|
A|---------------------------------------------------------------------------|
E|---------------------------------------------------------------------------|

******************************************************************************

"But in God's eyes, we are all the same..."

e|---------------------------------------------------------------------------|
B|---------------------------------------------------------------------------|
G|---------------------------------------------------------------------------|
D|---11-------11-------11-----------7-------7-------9------------------------|
A|---11--x-x--11--x-x--11--x-x-x-x--7--x-x--7--x-x--9--x-x-x-x---------------|
E|---9---x-x--9---x-x--9---x-x-x-x--5--x-x--5--x-x--7--x-x-x-x---------------|

e|---------------------------------------------------------------------------|
B|---14-------14-------14----------------------------------------------------|
G|---------------------------------------------------------------------------|
D|---11-------11-------11----------------------------------------------------|
A|---------------------------------------------------------------------------|
E|---------------------------------------------------------------------------|

******************************************************************************


e|---------------------------------------------------------------------------|
B|---------------------------------------------------------------------------|
G|---------------------------------------------------------------------------|
D|---11-------11-------6------------7-------7-------9------------------------|
A|---11--x-x--11--x-x--6---x-x-x-x--7--x-x--7--x-x--9--x-x-x-x---------------|
E|---9---x-x--9---x-x--4---x-x-x-x--5--x-x--5--x-x--7--x-x-x-x---------------|

e|---------------------------------------------------------------------------|
B|---14-------14--------------------------------------14--12-14--------------|
G|---------------------------------------------------------------------------|
D|---11-------11--------------------------------------11--9--11--------------|
A|---------------------------------------------------------------------------|
E|---------------------------------------------------------------------------|

******************************************************************************

"Under Blue Skies...."

e|---------------------------------------------------------------------------|
B|---------------------------------------------------------------------------|
G|---------------------------------------------------------------------------|
D|---11----------------------------------------------------------------------|
A|---11----------------------------------------------------------------------|
E|---9-----------------------------------------------------------------------|

e|---------------------------------------------------------------------------|
B|---14----------------16b17-14----------------------------------------------|
G|------------------------------13-------------------------------------------|
D|---11----------------------------------------------------------------------|
A|---------------------------------------------------------------------------|
E|---------------------------------------------------------------------------|

******************************************************************************

********
Verse 2:
********

"Who'll be a Nazi, and who'll be a Jew?..."

One part

e|---------------|----------------------------------------------------------------|
B|---------------|----------------------------------------------------------------|
G|---------------|----------------------------------------------------------------|
D|---11----------|---11-------11-------11-----------7-------7-------9-------------|
A|---11------x\--|---11--x-x--11--x-x--11--x-x-x-x--7--x-x--7--x-x--9--x-x-x-x----|
E|---9-------x\--|---9---x-x--9---x-x--9---x-x-x-x--5--x-x--5--x-x--7--x-x-x-x----|
    hold

*************************************************************************************

"Who'll be a white man..."

Two Parts

Rhythm:

e|-----------------|----------------------------------------------------------------|
B|-----------------|----------------------------------------------------------------|
G|-----------------|----------------------------------------------------------------|
D|-11--11----------|---11-------11-------11-----------7-------7-------9-------------|
A|-11--11------x\--|---11--x-x--11--x-x--11--x-x-x-x--7--x-x--7--x-x--9--x-x-x-x----|
E|-9---9-------x\--|---9---x-x--9---x-x--9---x-x-x-x--5--x-x--5--x-x--7--x-x-x-x----|
      hold

Lead:

e|-----------------|----------------------------------------------------------------|
B|-----------------|--------14---16----16b17r16-----14----12b14---------------------|
G|-----------------|---13------------------------------------------13-11~~----------|
D|-----------------|----------------------------------------------------------------|
A|-----------------|----------------------------------------------------------------|
E|-----------------|----------------------------------------------------------------|

*************************************************************************************

"Who'll be the President of the US of A?..."

One Part

e|---------------------------------------------------------------------------|
B|---------------------------------------------------------------------------|
G|---------------------------------------------------------------------------|
D|--7-------7-------7-----------9-------9-------9----------------------------|
A|--7--x-x--7--x-x--7--x-x-x-x--9--x-x--9--x-x--9--x-x-x-x-------------------|
E|--5--x-x--5--x-x--5--x-x-x-x--7--x-x--7--x-x--7--x-x-x-x-------------------|


"Who'll be a sinner of Saint?..."

e|-------------------------------------------------|
B|-------------------------------------------------|
G|-------------------------------------------------|
D|--7-------7-------7-----------6------------------|
A|--7--x-x--7--x-x--7--x-x-x-x--6------------------|
E|--5--x-x--5--x-x--5--x-x-x-x--4------------------|



*******
Chorus:
*******


Rhythm Guitar and Lead Guitar (fills) on alternate lines.


"Under blue skies, we all play the game..."

e|---------------------------------------------------------------------------|
B|---------------------------------------------------------------------------|
G|---------------------------------------------------------------------------|
D|---11-------11-------11-----------7-------7-------9------------------------|
A|---11--x-x--11--x-x--11--x-x-x-x--7--x-x--7--x-x--9--x-x-x-x---------------|
E|---9---x-x--9---x-x--9---x-x-x-x--5--x-x--5--x-x--7--x-x-x-x---------------|

e|---------------------------------------------------------------------------|
B|---------------------------------------------------------------------------|
G|----------------------------------8b9-r8-6---------------------------------|
D|---------------------------------------------------------------------------|
A|---------------------------------------------------------------------------|
E|---------------------------------------------------------------------------|

******************************************************************************


e|---------------------------------------------------------------------------|
B|---------------------------------------------------------------------------|
G|---------------------------------------------------------------------------|
D|---11-------11-------6------------7-------7-------9------------------------|
A|---11--x-x--11--x-x--6---x-x-x-x--7--x-x--7--x-x--9--x-x-x-x---------------|
E|---9---x-x--9---x-x--4---x-x-x-x--5--x-x--5--x-x--7--x-x-x-x---------------|

e|---------------------------------------------------------------------------|
B|----------------------------------------------------14--12-14--------------|
G|---------------------------------9\8--6------------------------------------|
D|----------------------------------------------------11--9--11--------------|
A|---------------------------------------------------------------------------|
E|---------------------------------------------------------------------------|

******************************************************************************

"But in God's eyes, we are all the same..."

e|---------------------------------------------------------------------------|
B|---------------------------------------------------------------------------|
G|---------------------------------------------------------------------------|
D|---11-------11-------11-----------7-------7-------9------------------------|
A|---11--x-x--11--x-x--11--x-x-x-x--7--x-x--7--x-x--9--x-x-x-x---------------|
E|---9---x-x--9---x-x--9---x-x-x-x--5--x-x--5--x-x--7--x-x-x-x---------------|

e|---------------------------------------------------------------------------|
B|---------------------------------------------------------------------------|
G|------------------------------11b13r11-9-----------------------------------|
D|---------------------------------------------------------------------------|
A|---------------------------------------------------------------------------|
E|---------------------------------------------------------------------------|

******************************************************************************


e|---------------------------------------------------------------------------|
B|---------------------------------------------------------------------------|
G|---------------------------------------------------------------------------|
D|---11-------11-------6------------7-------7-------9------------------------|
A|---11--x-x--11--x-x--6---x-x-x-x--7--x-x--7--x-x--9--x-x-x-x---------------|
E|---9---x-x--9---x-x--4---x-x-x-x--5--x-x--5--x-x--7--x-x-x-x---------------|

e|---------------------------------------------------------------------------|
B|----------------------------------------------------14\12-14---------------|
G|--------------------------------8h9p8-6------------------------------------|
D|----------------------------------------------------11\9--11---------------|
A|---------------------------------------------------------------------------|
E|---------------------------------------------------------------------------|

******************************************************************************

"Under Blue Skies...."

e|---------------------------------------------------------------------------|
B|---------------------------------------------------------------------------|
G|---------------------------------------------------------------------------|
D|---11----------------------------------------------------------------------|
A|---11----------------------------------------------------------------------|
E|---9-----------------------------------------------------------------------|

e|---------------------------------------------------------------------------|
B|---14----------------------------------------------------------------------|
G|---------------------------------------------------------------------------|
D|---11----------------------------------------------------------------------|
A|---------------------------------------------------------------------------|
E|---------------------------------------------------------------------------|

******************************************************************************

************
Guitar Solo:
************

First I'll do the Rhythm guitar behind the solo, then the solo itself after that.

Rhythm Guitar: this is a bit sketchy and may be completely wrong!

e|----------------------------------------------------------------|
B|----------------------------------------------------------------|
G|----------------------------------------------------------------|
D|--7-----7-----7-----7-----9-----9-----9-----9-------------------|
A|--7-----7-----7-----7-----9-----9-----9-----9-------------------|
E|--5-----5-----5-----5-----7-----7-----7-----7-------------------|

e|----------------------------------------------------------------|
B|----------------------------------------------------------------|
G|----------------------------------------------------------------|
D|--7-----7-----7-----7-----9-----9-----9-----9-------------------|
A|--7-----7-----7-----7-----9-----9-----9-----9-------------------|
E|--5-----5-----5-----5-----7-----7-----7-----7-------------------|

e|---------------------------------------------------------------------------|
B|---------------------------------------------------------------------------|
G|---------------------------------------------------------------------------|
D|--6----6----6----6----6----6----6----6-----6-7-6-7-6-7-6-7-6-7-6-7-6--9\---|
A|--6----6----6----6----6----6----6----6-----6-7-6-7-6-7-6-7-6-7-6-7-6--9\---|
E|--4----4----4----4----4----4----4----4-------------------------------------|

e|------------------------------------------|
B|------------------------------------------|
G|---13-------------14-------14--16-13------|
D|------------------------------------------|
A|---11--11-11--11--12----12-12--14-11------|
E|------------------------------------------|

e|------------------------------------------|
B|------------------------------------------|
G|---13-------------14-------14--16-13------|
D|------------------------------------------|
A|---11--11-11--11--12----12-12--14-11------|
E|------------------------------------------|

e|------------------------------------------|
B|------------------------------------------|
G|---13-------------14-------14--16-13------|
D|------------------------------------------|
A|---11--11-11--11--12----12-12--14-11------|
E|------------------------------------------|

e|------------------------------------------|
B|------------------------------------------|
G|---13-------------14-------14--16-13------|
D|------------------------------------------|
A|---11--11-11--11--12----12-12--14-11------|
E|------------------------------------------|




Solo Guitar:

e|---------------------------------------------------------------------------|
B|---------------------------------------------------------7-----------------|
G|---9-8-6---6-----8b9r8--9---------9-8-6---6------8b9-8-9-------------------|
D|---------9----------------9-------------9----------------------------------|
A|---------------------------------------------------------------------------|
E|---------------------------------------------------------------------------|

e|------------------------------------------------------------------14b16----|
B|---------------------------------------------------------------------------|
G|---9h11p9-8----8h9p8-------------------------------------------------------|
D|----------------------10----10h11p10---------------------------------------|
A|-------------------------------------11-----11h13p10h11*-------------------|
E|---------------------------------------------------------------------------|

*-use whammy bar to increase pitch (i guess - i dont have a whammy bar, never used one)

e|---------------------------------------------------------------9b11r9------|
B|------------------------------------------------------------------------9--|
G|----------------------------------------9-8-6------------------------------|
D|----------7---6h7--9--6-------------7-----------------7--7-----------------|
A|------6-7----------------------6-7----------------6-7----------------------|
E|---9------------------------9-------------------9--------------------------|

e|--------------11b12r11-9---------------------------------------------------|
B|---------------------------------------------------------------------------|
G|---------------------------------------------------------------------------|
D|----------7----------------------------------------------------------------|
A|------6-7------------------------------------------------------------------|
E|---9-----------------------------------------------------------------------|



*******
Chorus:
*******

"Under blue skies, we all play the game..."

e|---------------------------------------------------------------------------|
B|---------------------------------------------------------------------------|
G|---------------------------------------------------------------------------|
D|---11-------11-------11-----------7-------7-------9------------------------|
A|---11--x-x--11--x-x--11--x-x-x-x--7--x-x--7--x-x--9--x-x-x-x---------------|
E|---9---x-x--9---x-x--9---x-x-x-x--5--x-x--5--x-x--7--x-x-x-x---------------|

e|---------------------------------------------------------------------------|
B|---------------------------------------------------------------------------|
G|----------------------------------8b9-r8-6---------------------------------|
D|---------------------------------------------------------------------------|
A|---------------------------------------------------------------------------|
E|---------------------------------------------------------------------------|

******************************************************************************


e|---------------------------------------------------------------------------|
B|---------------------------------------------------------------------------|
G|---------------------------------------------------------------------------|
D|---11-------11-------6------------7-------7-------9------------------------|
A|---11--x-x--11--x-x--6---x-x-x-x--7--x-x--7--x-x--9--x-x-x-x---------------|
E|---9---x-x--9---x-x--4---x-x-x-x--5--x-x--5--x-x--7--x-x-x-x---------------|

e|---------------------------------------------------------------------------|
B|----------------------------------------------------14--12-14--------------|
G|---------------------------------------------------------------------------|
D|----------------------------------------------------11--9--11--------------|
A|---------------------------------------------------------------------------|
E|---------------------------------------------------------------------------|

******************************************************************************

"But in God's eyes, we are all the same..."

e|---------------------------------------------------------------------------|
B|---------------------------------------------------------------------------|
G|---------------------------------------------------------------------------|
D|---11-------11-------11-----------7-------7-------9------------------------|
A|---11--x-x--11--x-x--11--x-x-x-x--7--x-x--7--x-x--9--x-x-x-x---------------|
E|---9---x-x--9---x-x--9---x-x-x-x--5--x-x--5--x-x--7--x-x-x-x---------------|

e|---------------------------------------------------------------------------|
B|---------------------------------------------------------------------------|
G|------------------------------11b13r11-9-----------------------------------|
D|---------------------------------------------------------------------------|
A|---------------------------------------------------------------------------|
E|---------------------------------------------------------------------------|

******************************************************************************


e|---------------------------------------------------------------------------|
B|---------------------------------------------------------------------------|
G|---------------------------------------------------------------------------|
D|---11-------11-------6------------7-------7-------9------------------------|
A|---11--x-x--11--x-x--6---x-x-x-x--7--x-x--7--x-x--9--x-x-x-x---------------|
E|---9---x-x--9---x-x--4---x-x-x-x--5--x-x--5--x-x--7--x-x-x-x---------------|

e|---------------------------------------------------------------------------|
B|----------------------------------------------------14\12-14---------------|
G|---------------------------------------------------------------------------|
D|----------------------------------------------------11\9--11---------------|
A|---------------------------------------------------------------------------|
E|---------------------------------------------------------------------------|

******************************************************************************

"Under Blue Skies...."

e|---------------------|---------------------|
B|---------------------|---------------------|
G|---------------------|---------------------|
D|---11---6----7----9--|--11---6----7----9---|
A|---11---6----7----9--|--11---6----7----9---|
E|---9----4----5----7--|--9----4----5----7---|

e|---------------------------------------------------------------------------|
B|---14-----------------------------------pb17r16-12~------------------------|
G|---------------------------------------------------------------------------|
D|---11----------------------------------------------------------------------|
A|---------------------------------------------------------------------------|
E|---------------------------------------------------------------------------|

******************************************************************************

"But in God's Eyes..."

e|---------------------|---------------------|
B|---------------------|---------------------|
G|---------------------|---------------------|
D|---11---6----7----9--|--11---6----7----9---|
A|---11---6----7----9--|--11---6----7----9---|
E|---9----4----5----7--|--9----4----5----7---|

e|--------------------------------------------------------------------------------|
B|-----------------12b14r13-12h14p12h14p12h14p12----17b19-r17-16------------------|
G|--11b13r11-9----------------------------------------------------16h18p16--------|
D|-------------------------------------------------------------------------16h18--|
A|--------------------------------------------------------------------------------|
E|--------------------------------------------------------------------------------|

******************************************************************************

"Under blue skies..."

e|---------------------|---------------------|
B|---------------------|---------------------|
G|---------------------|---------------------|
D|---11---6----7----9--|--11---6----7----9---|
A|---11---6----7----9--|--11---6----7----9---|
E|---9----4----5----7--|--9----4----5----7---|

e|---------------------------------------------------------------------------|
B|---------------------------------------------------------------------------|
G|---------------------------------------------------------------------------|
D|---------------------------------------------------------------------------|
A|---------------------------------------------------------------------------|
E|---------------------------------------------------------------------------|

******************************************************************************

"But in God's eyes..."

e|---------------------|---------------------|
B|---------------------|---------------------|
G|---------------------|---------------------|
D|---11---6----7----9--|--11---6----7----9---|
A|---11---6----7----9--|--11---6----7----9---|
E|---9----4----5----7--|--9----4----5----7---|

e|---------------------------------------------------------------------------|
B|---------------------------------------------------------------------------|
G|---------------------------------------------------------------------------|
D|---------------------------------------------------------------------------|
A|---------------------------------------------------------------------------|
E|---------------------------------------------------------------------------|

******************************************************************************

e|---------------------------------------------------------------------------|
B|---------------------------------------------------------------------------|
G|---------------------------------------------------------------------------|
D|---11----------------------------------------------------------------------|
A|---11----------------------------------------------------------------------|
E|---9-----------------------------------------------------------------------|
    hold


******
Pause: 
******

In the quiet break, the guitar roughly plays, (with delay/echo or something):

Freely
e|--------------------------------------------------------------------------|
B|--------------------------------------------------------------------------|
G|---------------------------6----------------------------------------------|
D|-----7--9--6--9--6--------6------7--9--6--9--6----------------------------|
A|-----7--9--6--9--4-------4-------7--9--6--9--4----------------------------|
E|------------------------4-------------------------------------------------|



"One, two, tree, four..."

"Under blue skies..."

e|---------------------|---------------------|
B|---------------------|---------------------|
G|---------------------|---------------------|
D|---11---6----7----9--|--11---6----7----9---|
A|---11---6----7----9--|--11---6----7----9---|
E|---9----4----5----7--|--9----4----5----7---|

e|---------------------|---------------------|
B|---------------------|---------------------|
G|-18-13------18-14----|--18-13-----18-14----|
D|---------------------|---------------------|
A|---------------------|---------------------|
E|---------------------|---------------------|

******************************************************************************

"But in God's eyes..."

e|---------------------|---------------------|----------|
B|---------------------|---------------------|----------|
G|---------------------|---------------------|----------|
D|---11---6----7----9--|--11---6----7----9---|--11------|
A|---11---6----7----9--|--11---6----7----9---|--11------|
E|---9----4----5----7--|--9----4----5----7---|--9-------|

e|---------------------|---------------------|----------|
B|---------------------|---------------------|----------|
G|-18-13------18-14----|--18-13-----18-14----|--18-13---|
D|---------------------|---------------------|----------|
A|---------------------|---------------------|----------|
E|---------------------|---------------------|----------|

******************************************************************************

| /  slide up
| \  slide down
| h  hammer-on
| p  pull-off
| ~  vibrato
| +  harmonic
| x  Mute note
| b  Bend note
| r  Release bend
| pb Prebend note
===============================================================================
Добавлено: 14.06.2012
Другие материалы по этой песне:

Страница создана 28.05.2012
http://primanota.ru/bonfire/under-blue-skies-chords.htm
Привет, Гость.
Предлагаем пройти революционный курс по гитаре.
Подарок от PrimaNota.Ru, забирай!