PrimaNota.ru - самый крупный в мире бесплатный архив песенных текстов, аккордов, табулатур и нот


Blur - My Ark - текст песни, таба, видео

Регистрация Запомнить меня
Войти через:  Facebook Google Twitter Vk Yandex Mail.ru

Blur - My Ark - текст песни, таба, видео

Печатать
Просмотров: 132
MY ARK
BLUR
FROM CHEMICAL WORLD B-SIDE
1993
---------------------------
Tabbed by AAuuddee@aol.com


NOTE:the version of this song I have is not very good
so sometimes it wasn't easy for me to tab!!
There are sometimes many noises that are hard to put in tab
so there may be some slight differences but don't worry
that sounds right...moreover,some variations in the verses
can happen even if I've written the same riff in all verses.
But anyway,enjoy your guitar playing!!!


INTRO:let ring+disto

---------------------------------------------------------
---------------------------------------------------------
---------------------------------------------------------
--5s7--5s7--7-----5--7h5-----7s9--7s9--9-----7--9h7------
--------------5h7--------7h5-------------7h9--------9h7--
---------------------------------------------------------
                                                    repeat
----------5---------3s5--3s5-3--------0---------------------
--------5---5-------3s5--3s5-3--------5---------------------
--6b7r6-----------------------------------------------------
---------------7s5--------------4--2-----5--7h5-----7h5-----
---------------7s5--------------4--2------------7h5-----7h5-
---------------5s3--------------2--0------------------------


VERSE1:

guitar1:

  A                 B                 D      A
--0--0--2-----------2--2-------2--------2-------0--
--2-----2--2s3s2----4----4s5s4---4----3---3--2-----
--2-----2--------2--4--------------4--2---2--2-----
--2-----------------4-----------------0---0--2-----
--0-----------------2------------------------0-----
---------------------------------------------------
  G            E
-----------0-----0--
------0------0---0--
----0---0-----------
--0------------2----
--2------------2----
--3------------0---- repeat

guitar2:comes in the end of the guitar1 riff

-----(---------)
-----(---------)
-----(---------)
--5--(7h5------)x2
-----(----7h5--)
-----(---------)

on the 3rd time,guitar2 plays the intro riff in the same time:
---------------------------------------------------------
---------------------------------------------------------
---------------------------------------------------------
--5s7--5s7--7-----5--7h5-----7s9--7s9--9-----7--9h7------
--------------5h7--------7h5-------------7h9--------9h7--
---------------------------------------------------------
                                                    repeat
----------5---------3s5--3s5-3--------0---------------------
--------5---5-------3s5--3s5-3--------5---------------------
--6b7r6-----------------------------------------------------
---------------7s5--------------4--2-----5--7h5-----7h5-----
---------------7s5--------------4--2------------7h5-----7h5-
---------------5s3--------------2--0------------------------

LAST TIME:

guitar1:

  A                 B                 D      A
--0--0--2-----------2--2-------2--------2-------0--
--2-----2--2s3s2----4----4s5s4---4----3---3--2-----
--2-----2--------2--4--------------4--2---2--2-----
--2-----------------4-----------------0---0--2-----
--0-----------------2------------------------0-----
---------------------------------------------------

  G  A  B                   =20
--3--0--2----------------------
--0--2--4--4--4--4s5s4--4s5s4--
--0--2--4----------------------
--0--2--4----------------------
--2--0--2----------------------
--3----------------------------

guitar2:

---------------------------------------------------------
---------------------------------------------------------
---------------------------------------------------------
--5s7--5s7--7-----5--7h5-----7s9--7s9--9-----7--9h7------
--------------5h7--------7h5-------------7h9--------9h7--
---------------------------------------------------------
                             =20
                 G  A  B
-----------5-----3--0--2--2b-------------------
--------5----5---0--2--4--4b-------------------
--6b7r6----------0--2--4--4b------7h9b11r9-----
-----------------0--2--4--4b--7h9----------9~--
-----------------2--0--2-----------------------
-----------------3-----------------------------


CHORUS:

guitar1:

  F#  B   D   A   B
--2---2---5---0---2--
--2---4---7---2---4--
--3---4---7---2---4--
--4---4---7---2---4--
--4---2---5---0---2--
--2------------------

guitar2:starts on the B

-------------------
-------------------
------7h9b11r9-----
--7h9----------9~--
-------------------
-------------------

then play this:

  F#  B   D   A   B   A   B
--2---2---5---0---2---0---2--
--2---4---7---2---4---2---4--
--3---4---7---2---4---2---4--
--4---4---7---2---4---2---4--
--4---2---5---0---2---0---2--
--2--------------------------

--------11s9---9s-------------------
--s12~--12s10--10s-------------10~--
--------------------9b11--9b11------
------------------------------------
------------------------------------
------------------------------------


INTRO FILL


VERSE2:same as the 1st one


CHORUS


BRIDGE:

guitar1=3Dstrange noises(I think they're made from these chords)

  A    B   D    A    G    E
--12---7---10---12---10---12---
--14---7---10---14---12---12---
--14---8---11---14---12---13---
--14---9---12---14---12---14---repeat
--12---9---12---12---10---14---
-------7---10-------------12---

on the last time,play this:

  A    B   D    A
--12---7---10---12--15h17(repeat)--s19--
--14---7---10---14----------------------
--14---8---11---14----------------------
--14---9---12---14----------------------
--12---9---12---12----------------------
-------7---10---------------------------

guitar2: intro fill

---------------------------------------------------------
---------------------------------------------------------
---------------------------------------------------------
--5s7--5s7--7-----5--7h5-----7s9--7s9--9-----7--9h7------
--------------5h7--------7h5-------------7h9--------9h7--
---------------------------------------------------------
                                                    repeat
----------5---------3s5--3s5-3--------0---------------------
--------5---5-------3s5--3s5-3--------5---------------------
--6b7r6-----------------------------------------------------
---------------7s5--------------4--2-----5--7h5-----7h5-----
---------------7s5--------------4--2------------7h5-----7h5-
---------------5s3--------------2--0------------------------

Last time:
---------------------------------------------------------
---------------------------------------------------------
---------------------------------------------------------
--5s7--5s7--7-----5--7h5-----7s9--7s9--9-----7--9h7------
--------------5h7--------7h5-------------7h9--------9h7--
---------------------------------------------------------
                             =20
                 G  A  B             B
-----------5-----3--0--2-------------2-------------------
--------5----5---0--2--4--4---4s5s4--4-------------------
--6b7r6----------0--2--4----4--------4------7h9b11r9-----
-----------------0--2--4-------------4--7h9----------9~--
-----------------2--0--2-------------2-------------------
-----------------3---------------------------------------


CHORUS

guitar1:

  F#  B   D   A   B
--2---2---5---0---2--
--2---4---7---2---4--
--3---4---7---2---4--repeat
--4---4---7---2---4--
--4---2---5---0---2--
--2------------------

guitar2:starts on the B

-------------------
-------------------
------7h9b11r9-----repeat
--7h9----------9~--
-------------------
-------------------

then play this:

  F#  B   D   A   B   A   B
--2---2---5---0---2---0---2--
--2---4---7---2---4---2---4--
--3---4---7---2---4---2---4--
--4---4---7---2---4---2---4--
--4---2---5---0---2---0---2--
--2--------------------------

                                B
--------11s9---9s----------------2----
--s12~--12s10--10s---------------4----
--------------------9b11--9b11s--4----
---------------------------------4----
---------------------------------2----
--------------------------------------

     
Добавлено: 03.09.2013
Другие материалы по этой песне:
  • Аккорды и текст

Страница создана 03.09.2013
http://primanota.ru/blur/my-ark-chords.htm
Привет, Гость.
Предлагаем пройти революционный курс по гитаре.
Подарок от PrimaNota.Ru, забирай!