PrimaNota.ru - самый крупный в мире бесплатный архив песенных текстов, аккордов, табулатур и нот


Blur - Seven Days - таба, видео

Регистрация Запомнить меня
Войти через:  Facebook Google Twitter Vk Yandex Mail.ru

Blur - Seven Days - таба, видео

Печатать
Просмотров: 154
7 DAYS
BLUR
MUSIC IS MY RADAR B-SIDE
2000
------------------------
Tabbed by AAuuddee@aol.com


INTRO:there are strange sounds so I tried to tab
it as right as possible...

------0---------------0----------
---------------------------------
--7b9----repeat---r7-----repeat--
---------------------------------
---------------------------------
---------------------------------

It seems to be this but it's actually difficult to tab!!

Then a second guitar starts the verse riff:

-------------------5--4--
-------------------5--5--
-----5-----5--7--5-------repeat
--7--5--7--5--7--5-------
--7-----7----------------
--5----------------------


VERSE1:

-------------------5--4--
-------------------5--5--
-----5-----5--7--5-------repeat
--7--5--7--5--7--5-------
--7-----7----------------
--5----------------------


CHORUS:

  Am              C                D    
-------------------------------------------------------
-------------------------------------------------------
--------5---------------9------------------11----------
--------7---------------10-----------------12----------
--7--7--7--7--7---10-10-10-10-10---12--12--12--12--12--
--5--5--5--5--5---8--8--8--8--8----10--10--10--10--10--

  E                    C  D
-----------------------0--2--
-----------------------1--3--
----------13-----------0--2--
----------14-----------2--0--
--14--14--14--14--14---3-----
--12--12--12--12--12---------


Then play the intro strange sounds


VERSE2: same as verse1


CHORUS

then play this:

  D
-----0-----0--
--3--3--3--3--repeat
--2-----2-----
--0-----0-----
--------------
--------------


BRIDGE:

            C  F  D  C
------------0--1--2--0--
------------1--1--3--1--
------------0--2--2--0--repeat
--2s4--2s4--2--3--0--2--
--3s5--3s5--3--3-----3--
---------------1--------

             C           D
------------(0-----------2-----------)
------------(1--1p0------3--1p0------)
------------(0------2p0--2------2p0--)x3
--2s4--2s4--(2-----------0-----------)
--3s5--3s5--(3-----------------------)
------------(------------------------)
=20
  D           D
--2-----------2--
--3--1p0------3--
--2------2p0--2--
--0-----------0--
-----------------
-----------------


VERSE RIFF


CHORUS




The end!!!!

     
Добавлено: 14.06.2013
Другие материалы по этой песне:
  • Аккорды и текст

Страница создана 14.06.2013
http://primanota.ru/blur/seven-days-chords.htm
Привет, Гость.
Предлагаем пройти революционный курс по гитаре.
Подарок от PrimaNota.Ru, забирай!