PrimaNota.ru - самый крупный в мире бесплатный архив песенных текстов, аккордов, табулатур и нот


Blur - Turn It Up - текст песни, таба, видео

Регистрация Запомнить меня
Войти через:  Facebook Google Twitter Vk Yandex Mail.ru

Blur - Turn It Up - текст песни, таба, видео

Печатать
Просмотров: 117
Авторы музыки: Alex James, Dave Rowntree, Damon Albarn, Graham Coxon
Авторы текста: Damon Albarn
TURN IT UP
BLUR
FROM MODERN LIFE IS RUBBISH
1993
----------------------------
Tabbed by AAuuddee@aol.com


INTRO:

1st guitar:

--15~repeated-quickly--------------------------------
------------------------14--12--17~repeated-quickly--
-----------------------------------------------------
-----------------------------------------------------
-----------------------------------------------------
-----------------------------------------------------

2ng guitar starts later:

 Asus4
--0--
--3--
--2--
--2--
--0--
-----

Then play this fill:

  D
--2--2--2--0--2--3--2p0--0---2--2--2--3--2p0--0--3--
--3--3--3--3--3--3--2p0--0---3--3--3--3--2p0--0--3--
--2--2--2--2--2--2-----------2--2--2--2-------------
----------------------------------------------------
----------------------------------------------------
----------------------------------------------------

--2--2--2--0--2--3--2p0--0---2--2--2--3--------------------
--3--3--3--3--3--3--2p0--0---3--3--3--3--2p0---------------
--2--2--2--2--2--2-----------2--2--2--2------2p0-----------
-------------------------------------------------2p0-------
-----------------------------------------------------1s2~--
-----------------------------------------------------------

Then play verse fill:

acoustic guitar:

  D    Em   G    Em
--10---12---10---12--
--10---12---12---12--repeat
--11---12---12---12--
--12---14---12---14--
--12---14---10---14--
--10---12---10---12--

electric guitar:

--------------------------------------------------
------------12--10--7---7------7--10--7---7-------
----------7-----------9---9--9----------9---------
--7--7--9-----------------------------------9--7--
--------------------------------------------------
--------------------------------------------------


CHORUS:

 Asus4  D  C  A  D  C  A
--0-----2--0--0--2--0--0--2p0-----
--3-----3--1--2--3--1--2------3~--
--2-----2--0--2--2--0--2----------
--2-----0--2--2--0--2--2----------
--0--------3--0-----3--0----------
----------------------------------


then play the intro riff:

  D
--2--2--2--0--2--3--2p0--0---2--2--2--3--------------------
--3--3--3--3--3--3--2p0--0---3--3--3--3--2p0---------------
--2--2--2--2--2--2-----------2--2--2--2------2p0-----------
-------------------------------------------------2p0-------
-----------------------------------------------------1s2~--
-----------------------------------------------------------


VERSE1:

acoustic guitar:

  D    Em   G    Em
--10---12---10---12--
--10---12---12---12--repeat
--11---12---12---12--
--12---14---12---14--
--12---14---10---14--
--10---12---10---12--

electric guitar which comes later:

--------------------------------------------------
------------12--10--7---7------7--10--7---7-------
----------7-----------9---9--9----------9---------
--7--7--9-----------------------------------9--7--
--------------------------------------------------
--------------------------------------------------


CHORUS:

 Asus4   D  C  A  D  C  A         D
--0-----(2--0--0--2--0--0)repeat--2--
--3-----(3--1--2--3--1--2)--------3--
--2-----(2--0--2--2--0--2)--------2--
--2-----(0--2--2--0--2--2)--------0--
--0-----(---3--0-----3--0)-----------
--------(----------------)-----------


BRIDGE:

guitar1:
--------------------1h3--1h3-repeat--
--1h3--1h3-repeat--------------------
-------------------------------------
-------------------------------------
-------------------------------------
-------------------------------------

guitar2:

--1--repeat--3--repeat--
--1----------3----------
------------------------
------------------------
------------------------
------------------------


CHORUS:

guitar1:

 Asus4   D  C  A  D  C  A        =20
--0-----(2--0--0--2--0--0)repeat--
--3-----(3--1--2--3--1--2)--------
--2-----(2--0--2--2--0--2)--------
--2-----(0--2--2--0--2--2)--------
--0-----(---3--0-----3--0)--------
--------(----------------)--------

guitar2:

------------------
--3~repeated------
--------------2~--repeat
------------------
------------------
------------------


VERSE2: same as verse1


CHORUS:

Asus4   D  C  A  D  C  A        =20
--0-----(2--0--0--2--0--0)repeat--
--3-----(3--1--2--3--1--2)--------
--2-----(2--0--2--2--0--2)--------
--2-----(0--2--2--0--2--2)--------
--0-----(---3--0-----3--0)--------
--------(----------------)--------


ENDING:

guitar1:

   D  C  A  D  C  A         D=20
--(2--0--0--2--0--0)repeat--2--
--(3--1--2--3--1--2)--------3--
--(2--0--2--2--0--2)--------2--
--(0--2--2--0--2--2)--------0--
--(---3--0-----3--0)-----------
--(----------------)-----------

guitar2:

---------------------------2--2--2--2s3--2s3--14repeated--
--3~repeated----------------------------------------------
--------------2~--(repeat)--------------------------------
----------------------------------------------------------
----------------------------------------------------------
----------------------------------------------------------

END!!!
     
Добавлено: 26.09.2013
Другие материалы по этой песне:
  • Аккорды и текст

Страница создана 26.09.2013
http://primanota.ru/blur/turn-it-up-chords.htm
Привет, Гость.
Предлагаем пройти революционный курс по гитаре.
Подарок от PrimaNota.Ru, забирай!