PrimaNota.ru - самый крупный в мире бесплатный архив песенных текстов, аккордов, табулатур и нот


Blue Oyster Cult - Transmaniacon Mc - текст песни, таба, видео

Регистрация Запомнить меня
Войти через:  Facebook Google Twitter Vk Yandex Mail.ru

Blue Oyster Cult - Transmaniacon Mc - текст песни, таба, видео

Печатать
Просмотров: 198
Авторы: Albert Bouchard, Donald Roeser, Sandy Pearlman, Eric Bloom

Blue Oyster Cult - Transmaniacon MC
Fluffs & Scruffs' Great Journey To The Abyss
     E  E  Q    E  E  Q       E  E  Q    E  E  Q       E  E  E  E  E  E  E  E   
E||--------5----------5----|--------5----------5----|--------------------------|
B||--------6----------6----|--------6----------6----|--------------------------|
G||--x--x--5----x--x--5----|--x--x--5----x--x--5----|--------------------------|
D||--x--x--7----x--x--7----|--x--x--7----x--x--7----|-----7--6-----5--4--------|
A||--x--x--5----x--x--5----|--x--x--5----x--x--5----|--0--------7--------5--4--|
E||------------------------|------------------------|--------------------------|


  E  E  E  E  E  E  E  E     E  E  E  E  E  E  E  E     H        E  E  E  E   
--------------------------|--------------------------|-----------------------|
--------------------------|--------------------------|-----------------------|
--------------------------|--------------------------|-----------------------|
--------------------------|--7-----5-----2-----0-----|--------------0--2--5--|
--8--7--------6--5--------|-----7-----5-----3-----0--|--3--------L-----------|
--------8--7--------6--5--|--------------------------|-----------------------|


  E  E  E  E  E  E  E  E     H        E  E  E  E                           
--------------------------|-----------------------|
--------------------------|-----------------------|
--------------------------|-----------------------|
--7-----5-----2-----0-----|--------------0--2--5--|
-----7-----5-----3-----0--|--3--------L-----------|
--------------------------|-----------------------|

Duration Legend
---------------
W - whole
H - half
Q - quarter
E - 8th


Tablature Legend
----------------
L - tied note
x - dead note
Добавлено: 08.05.2012
Другие материалы по этой песне:
  • Аккорды и текст

Страница создана 07.05.2012
http://primanota.ru/blue-oyster-cult/transmaniacon-mc-chords.htm
Привет, Гость.
Предлагаем пройти революционный курс по гитаре.
Подарок от PrimaNota.Ru, забирай!