PrimaNota.ru - самый крупный в мире бесплатный архив песенных текстов, аккордов, табулатур и нот


Blue Oyster Cult - Blue Oyster Cult - текст песни, таба, видео

Регистрация Запомнить меня
Войти через:  Facebook Google Twitter Vk Yandex Mail.ru

Blue Oyster Cult - Blue Oyster Cult - текст песни, таба, видео

Печатать
Просмотров: 60
Уроки эстрадного вокала в Санкт-Петербурге
-------------------------------------------------------------------------------
                     Blue Oyster Cult - Blue Oyster Cult
-------------------------------------------------------------------------------
Tabbed by: LoggyK
E-mail: Loggy.king@gmail.com

Blue Oyster Cult a.k.a Subhuman from the Imaginos album.

Tuning: Standard

Intro "I am becalmed in virtue..."

e|------------------------------|--------------------------------------------|
B|-------15--15-------15--15----|----------15--15------15--15----------------|
G|-----14--14-------14--14------|--------14--14------14--14------------------|
D|------------------------------|--------------------------------------------|
A|--14---------12---------------|-----14---------12--------------------------|
E|------------------------------|--------------------------------------------|
    B          A                      B          A
(repeat)


Verse end "... flow as I bleed."

e|------------------------------|--------------------------------------------|
B|-------15--15-------15--15----|--------------------------------------------|
G|-----14--14-------14--14------|--------------------------------------------|
D|------------------------------|--------------------------------------------|
A|------------------------------|--------------------------------------------|
E|---12-------------------------|--------------------------------------------|
     E

Pre-Chrous "Recall the dream of luxor..." 

e|---------------------------------------------------------------------------|
B|---------------------------------------------------------------------------|
G|---------------------------------------------------------------------------|
D|-7/9-9---7/9-9---7/9-9---------5-7-----------------------------------------|
A|-7/9-9---7/9-9---7/9-9---------5-7-----------------------------------------|
E|-5/7-7---5/7-7---5/7-7---------3-5-----------------------------------------|
   A B B   A B B   A B B         G A
(repeat)

Pre-Chrous end "... In all that is and all that seems." 

e|---------------------------------------------------------------------------|
B|---------------------------------------------------------------------------|
G|---------------------------------------------------------------------------|
D|-7/9-9---7/9-9---7/9-9---------5-2-----------------------------------------|
A|-7/9-9---7/9-9---7/9-9---------5-2-----------------------------------------|
E|-5/7-7---5/7-7---5/7-7---------3-0-----------------------------------------|
   A B B   A B B   A B B         G E

Chorus "Ladies fish and gentlemen..."

e|---------------------------------------------------------------------------|
B|---------------------------------------------------------------------------|
G|---7---7-----------5---5---------------------------------------------------|
D|---7---7---7---7---5---5---5---5-------------------------------------------|
A|---5---5---7---7---3---3---5---5-------------------------------------------|
E|-----------5---5-----------3---3-------------------------------------------|
     D   D   A   A   C   C   G   G
(repeat)

ALTERNATE CHORUS
(Not actually played this way but more or less mimics the piano)

e|---------------------------------------------------------------------------|
B|---------------------------------------------------------------------------|
G|-----7---------------5-----------------------------------------------------|
D|----7-7------7------5-5------5-5-------------------------------------------|
A|---5--------7-7----3--------5-5--------------------------------------------|
E|-----------5---------------3-----------------------------------------------|
     D       A       C       G    



************************************

| /   slide up
| \   slide down
| h   hammer-on
| p   pull-off
| ~   vibrato
| +   harmonic
| x   Mute note
| b   Bend
| pb  Pre-bend
| br  Bend release
| pbr Pre-bend release
| brb Bend release bend

************************************
Добавлено: 21.11.2015
Другие материалы по этой песне:
  • Аккорды и текст

Страница создана 30.07.2012
http://primanota.ru/blue-oyster-cult/blue-oyster-cult-chords.htm
Привет, Гость.
Предлагаем пройти революционный курс по гитаре.
Подарок от PrimaNota.Ru, забирай!