PrimaNota.ru - самый крупный в мире бесплатный архив песенных текстов, аккордов, табулатур и нот


Bloodbath - Treasonous - текст песни, таба, видео

Регистрация Запомнить меня
Войти через:  Facebook Google Twitter Vk Yandex Mail.ru

Bloodbath - Treasonous - текст песни, таба, видео

Печатать
Просмотров: 224
Уроки эстрадного вокала в Санкт-Петербурге
Авторы музыки: Anders Nyström
Авторы текста: Anders Nyström
===========================================================

                   Treasonous

===========================================================

By:  Bloodbath
Album: The Fathomless Mastery

Tabbed by: John Moores
mooresjw@email.uc.edu



Drop A Tuning (A E A D F# B)

 *  = Palm Mute
 @  = Pinched harmonic
 x  = muted
(5) = natural harmonic on said fret
 5t = tremolo pick said fret
 tr = trill between said frets


Intro Pt. 1
0:00

Guitar I
|----------------------------------------------------------|
|----------------------------------------------------------|
|---7--------8---------------------------------------------|
|--------------------------2----1--------------------------|
|---5--------6-------------2----1--------------------------|
|------0-0-0-------0-0-0---2----1--------------------------|

Guitar II
|----------------------------------------------------------|
|----------------------------------------------------------|
|----------------------------------------------------------|
|---0--------1-------------2----1--------------------------|
|---0--------1-------------2----1--------------------------|
|---0--0-0-0-1-----0-0-0---2----1--------------------------|


Intro Pt. 2

Guitar I & II
|----------------------------------------------------------|
|----------------------------------------------------------|
|----7t--10t--7t-----7t--10t--7t----7t--10t--7t--6t--------|
|----------------------------------------------------------|  x2
|----------------------------------------------------------|
|--0---------------0--------------0------------------------|
   *               *              *

|----------------------------------------------------------|
|----------------------------------------------------------|
|----7t--10t--7t-----7t--10t--7t----7t--10t--7t--6t5t3t2t--|
|----------------------------------------------------------|
|----------------------------------------------------------|
|--0---------------0--------------0------------------------|
   *               *              *

|----------------------------------------------------------|
|----------------------------------------------------------|
|----7t--10t--7t-----7t--10t--7t----7t--10t--7t-11t10t8t7t-|
|----------------------------------------------------------|
|----------------------------------------------------------|
|--0---------------0--------------0------------------------|
   *               *              *

Verse 1
0:20

Guitar I
|----------------------------------------------------------|
|----------------------------------------------------------|
|----------------------------------------------------------|
|----------------------------------------------------------|
|-----------------------------5tr6--7tr8--8tr9--7tr8-------|
|--000--0-0-0-0--000-0-000--0------------------------------|
   ***  * * * *  *** * ***  *
                                                               x2
|----------------------------------------------------------|
|----------------------------------------------------------|
|----------------------------------------------------------|
|----------------------------------------------------------|
|-----------------------------9-8-6-8-6-5-3-5-6-5@---------|
|--000--0-0-0-0--000-0-000--0------------------------------|
   ***  * * * *  *** * ***  *


Guitar II
|----------------------------------------------------------|
|----------------------------------------------------------|
|----------------------------------------------------------|
|-----------------------------3tr4--5tr6--6tr7--5tr6-------|
|----------------------------------------------------------|
|--000--0-0-0-0--000-0-000--0------------------------------|
   ***  * * * *  *** * ***  *
                                                               x2 
|----------------------------------------------------------|
|----------------------------------------------------------|
|-----------------------------11-10-8-10-8-7-5-7-8--5@-----|
|----------------------------------------------------------|
|----------------------------------------------------------|
|--000--0-0-0-0--000-0-000--0------------------------------|
   ***  * * * *  *** * ***  *

Pre-chorus
0:37

Guitar I
|----------------------------------------------------------|
|------------15t-11t---------------------------------------|
|---------------------13t--10t--8t--7t-8t-10t--------------|
|--0-1----1------------------------------------------------|
|--0-1----1------------------------------------------------|
|--0-1----1------------------------------------------------|

|----------------------------------------------------------|
|----------------------------------------------------------|
|--8-7----7---7t--5t--7t-8t--7t-8t--10t-------------7-8----|
|----------------------------------------------------------|
|--6-5----5-----------------------------------------5-6----|
|----------------------------------------------------------|

Guitar II
|----------------------------------------------------------|
|------------15t-11t---------------------------------------|
|---------------------13t--10t--8t--7t-8t-10t--------------|
|--0-1----1------------------------------------------------|
|--0-1----1------------------------------------------------|
|--0-1----1------------------------------------------------|

|----------------------------------------------------------|
|----------------------------------------------------------|
|-------------7t--5t--7t-8t--7t-8t--10t--------------------|
|--1-0----0------------------------------------------------|
|--1-0----0-----------------------------------------0-1----|
|--1-0----0-----------------------------------------0-1----|


Verse 2
0:55

Guitar I
|----------------------------------------------------------|
|----------------------------------------------------------|
|----------------------------------------------------------|
|----------------------------------------------------------|
|-----------------------------5tr6--7tr8--8tr9--7tr8-------|
|--000--0-0-0-0--000-0-000--0------------------------------|
   ***  * * * *  *** * ***  *
                                                               x2
|----------------------------------------------------------|
|----------------------------------------------------------|
|----------------------------------------------------------|
|----------------------------------------------------------|
|-----------------------------9-8-6-8-6-5-3-5-6-5@---------|
|--000--0-0-0-0--000-0-000--0------------------------------|
   ***  * * * *  *** * ***  *


Guitar II
|----------------------------------------------------------|
|----------------------------------------------------------|
|----------------------------------------------------------|
|-----------------------------3tr4--5tr6--6tr7--5tr6-------|
|----------------------------------------------------------|
|----------------------------------------------------------|

                                                               x2 
|----------------------------------------------------------|
|----------------------------------------------------------|
|-----------------------------11-10-8-10-8-7-5-7-8--5@-----|
|----------------------------------------------------------|
|----------------------------------------------------------|
|--000--0-0-0-0--000-0-000--0------------------------------|
   ***  * * * *  *** * ***  *



Chorus
1:12

Guitar I
|----------------------------------------------------------|
|----------------------------------------------------------|
|----------------------------------------------------------|
|--0--------------8-------------0-------------4---------0--|  x2
|--0--------------8-------------0-------------4---------0--|
|--0--0-0-0-0-0-0-8-0-0-0-0-0-0-0-0-0-0-0-0-0-4---------0--|
      * * * * * *   * * * * * *   * * * * * *

Guitar II  (some effect, maybe even keys or something)
|----------------------------------------------------------|
|----------------------------------------------------------|
|----------------------------------------------------------|
|-------------------------------------------------------0--|  x2
|-----7--3--0-----8--3--0----7--3--0-------7--6--4--3---0--|
|-------------------------------------------------------0--|


Verse 3
1:30 

Guitar I
|------------------------------------|
|------------------------------------|
|------------------------------------|
|------------------------------------|
|------------------------------------|
|--000--0-0-0-0--000-0-000--0--------|
   ***  * * * *  *** * ***  *

Guitar I
|----------------------------------------------------------|
|----------------------------------------------------------|
|----------------------------------------------------------|
|----------------------------------------------------------|
|-----------------------------5tr6--7tr8--8tr9--7tr8-------|
|--000--0-0-0-0--000-0-000--0------------------------------|
   ***  * * * *  *** * ***  *
                                                               x2
|----------------------------------------------------------|
|----------------------------------------------------------|
|----------------------------------------------------------|
|----------------------------------------------------------|
|-----------------------------9-8-6-8-6-5-3-5-6-5@---------|
|--000--0-0-0-0--000-0-000--0------------------------------|
   ***  * * * *  *** * ***  *


Guitar II
|----------------------------------------------------------|
|----------------------------------------------------------|
|----------------------------------------------------------|
|-----------------------------3tr4--5tr6--6tr7--5tr6-------|
|----------------------------------------------------------|
|--000--0-0-0-0--000-0-000--0------------------------------|
   ***  * * * *  *** * ***  *
                                                               x2 
|----------------------------------------------------------|
|----------------------------------------------------------|
|-----------------------------11-10-8-10-8-7-5-7-8--5@-----|
|----------------------------------------------------------|
|----------------------------------------------------------|
|--000--0-0-0-0--000-0-000--0------------------------------|
   ***  * * * *  *** * ***  *

Pre-chorus
1:48

Guitar I
|----------------------------------------------------------|
|------------15t-11t---------------------------------------|
|---------------------13t--10t--8t--7t-8t-10t--------------|
|--0-1----1------------------------------------------------|
|--0-1----1------------------------------------------------|
|--0-1----1------------------------------------------------|

|----------------------------------------------------------|
|----------------------------------------------------------|
|--8-7----7---7t--5t--7t-8t--7t-8t--10t-------------7-8----|
|----------------------------------------------------------|
|--6-5----5-----------------------------------------5-6----|
|----------------------------------------------------------|
                                                                x2
Guitar II
|----------------------------------------------------------|
|------------15t-11t---------------------------------------|
|---------------------13t--10t--8t--7t-8t-10t--------------|
|--0-1----1------------------------------------------------|
|--0-1----1------------------------------------------------|
|--0-1----1------------------------------------------------|

|----------------------------------------------------------|
|----------------------------------------------------------|
|-------------7t--5t--7t-8t--7t-8t--10t--------------------|
|--1-0----0------------------------------------------------|
|--1-0----0-----------------------------------------0-1----|
|--1-0----0-----------------------------------------0-1----|


Verse 4
2:08

Guitar I
|----------------------------------------------------------|
|----------------------------------------------------------|
|----------------------------------------------------------|
|----------------------------------------------------------|
|-----------------------------5tr6--7tr8--8tr9--7tr8-------|
|--000--0-0-0-0--000-0-000--0------------------------------|
   ***  * * * *  *** * ***  *

|----------------------------------------------------------|
|----------------------------------------------------------|
|----------------------------------------------------------|
|----------------------------------------------------------|
|-----------------------------9-8-6-8-6-5-3-5-6-5@---------|
|--000--0-0-0-0--000-0-000--0------------------------------|
   ***  * * * *  *** * ***  *

|----------------------------------------------------------|
|----------------------------------------------------------|
|----------------------------------------------------------|
|----------------------------------------------------------|
|-----------------------------5tr6--7tr8--8tr9--7tr8-------|
|--000--0-0-0-0--000-0-000--0------------------------------|
   ***  * * * *  *** * ***  *

|----------------------------------------------------------|
|----------------------------------------------------------|
|-----------------7h8h9------------------------------------|
|--1-1-1----7h8h9-------6h7h8------------------------------|
|--1-1-1---------------------------------------------------|
|--1-1-1---------------------------------------------------|
     *

Guitar II
|----------------------------------------------------------|
|----------------------------------------------------------|
|----------------------------------------------------------|
|-----------------------------3tr4--5tr6--6tr7--5tr6-------|
|----------------------------------------------------------|
|--000--0-0-0-0--000-0-000--0------------------------------|
   ***  * * * *  *** * ***  *

|----------------------------------------------------------|
|----------------------------------------------------------|
|-----------------------------11-10-8-10-8-7-5-7-8--5@-----|
|----------------------------------------------------------|
|----------------------------------------------------------|
|--000--0-0-0-0--000-0-000--0------------------------------|
   ***  * * * *  *** * ***  *

|----------------------------------------------------------|
|----------------------------------------------------------|
|----------------------------------------------------------|
|-----------------------------3tr4--5tr6--6tr7--5tr6-------|
|----------------------------------------------------------|
|--000--0-0-0-0--000-0-000--0------------------------------|
   ***  * * * *  *** * ***  *

|----------------------------------------------------------|
|----------------7h8h9-------------------------------------|
|----------7h8h9-------6h7h8-------------------------------|
|--1-1-1---------------------------------------------------|
|--1-1-1---------------------------------------------------|
|--1-1-1---------------------------------------------------|
     *

Chorus
2:25

Guitar I
|----------------------------------------------------------|
|----------------------------------------------------------|
|----------------------------------------------------------|
|--0------------8-----------0-----------4------------------|  x2
|--0------------8-----------0-----------4------------------|
|--0------------8-----------0-----------4------------------|


Guitar II  (some effect, maybe even keys or something)
|----------------------------------------------------------|
|----------------------------------------------------------|
|----------------------------------------------------------|
|----------------------------------------------------------|  x2
|-----7--3--0-----8--3--0----7--3--0-------7--6--4--3---0--|
|---0------------0----------0-------------0----------------|
    *            *          *             *

Pre-Solo
2:41

Guitar I
|----------------------------------------------------------|
|----------------------------------------------------------|
|----------------------------------------------------------|
|----------------------------------------------------------|  x4
|--0-4-5--0-5-4--0-4-5--0-4-3--0-0-0-0---------------------|
|--0-4-5--0-5-4--0-4-5--0-4-3--0-0-0-0---------------------|
   *      *      *      *      * * * *

Guitar II  (fade in)
|----------------------------------------------------------|
|----------------------------------------------------------|
|----------------------------------------------------------|
|----------------------------------------------------------|
|------------------0-0-0-0-0-0-0-0-0-0---------------------|
|------------------0-0-0-0-0-0-0-0-0-0---------------------|
                   * * * * * * * * * *

|----------------------------------------------------------|
|----------------------------------------------------------|
|-----Pick Scratch-----------------------------------------|
|--------------from bridge---------------------------------|
|-----------------------towards nut------------------------|
|----------------------------------------------------------|

|----------------------------------------------------------|
|----------------------------------------------------------|
|----------------------------------------------------------|
|----------------------------------------------------------|  x2
|--0-4-5--0-5-4--0-4-5--0-4-3--0-0-0-0---------------------|
|--0-4-5--0-5-4--0-4-5--0-4-3--0-0-0-0---------------------|
   *      *      *      *      * * * *

Solo  - IN PROGRESS
2:58

Guitar I
|----------------------------------------------------------|
|----------------------------------------------------------|
|----------------------------------------------------------|
|---------------------------4@b-(slow bend)----------------|  x4
|--0-4-5--0-5-4--0-4-5--0-0--------------------------------|
|--0-4-5--0-5-4--0-4-5--0-0--------------------------------|
   *      *      *      * *


Guitar II
|---21b22r21-----------------------------------------------|
|---------slow---------------------------------------------|
|--------release-------------------------------------------|
|----------------------------------------------------------|
|----------------------------------------------------------|
|----------------------------------------------------------|


Post-Solo
3:14

Guitar I
|----------------------------------------------------------|
|------------------------pick scratch----------------------|
|------------------------------from bridge-----------------|
|-7--------8---------2----------------to neck--------------|
|-5--------6---------2-------------------------------------|
|---000000---000000--2-------------------------------------|

Guitar II
|----------------------------------------------------------|
|------------------------pick scratch----------------------|
|------------------------------from bridge-----------------|
|-7--------8---------2----------------to neck--------------|
|-5--------6---------2-------------------------------------|
|---000000---000000--2-------------------------------------|


Pre-chorus
3:21

Guitar I
|----------------------------------------------------------|
|------------15t-11t---------------------------------------|
|---------------------13t--10t--8t--7t-8t-10t--------------|
|--0-1----1------------------------------------------------|
|--0-1----1------------------------------------------------|
|--0-1----1------------------------------------------------|

|----------------------------------------------------------|
|----------------------------------------------------------|
|--8-7----7---7t--5t--7t-8t--7t-8t--10t-------------7-8----|
|----------------------------------------------------------|
|--6-5----5-----------------------------------------5-6----|
|----------------------------------------------------------|
                                                                x2
Guitar II
|----------------------------------------------------------|
|------------15t-11t---------------------------------------|
|---------------------13t--10t--8t--7t-8t-10t--------------|
|--0-1----1------------------------------------------------|
|--0-1----1------------------------------------------------|
|--0-1----1------------------------------------------------|

|----------------------------------------------------------|
|----------------------------------------------------------|
|-------------7t--5t--7t-8t--7t-8t--10t--------------------|
|--1-0----0------------------------------------------------|
|--1-0----0-----------------------------------------0-1----|
|--1-0----0-----------------------------------------0-1----|


Bridge
3:39

Guitar I
|----------------------------------------------------------|
|--15t-11t-------------------------------------------------|
|----------13t--10t--8t--7t-8t-10t-------------------------|
|----------------------------------------------------------|
|------------------------------------5@-00000000000--------|
|---------------------------------------00000000000--------|
                                        ***********
                                                              x2
|----------------------------------------------------------|
|-----------------------------------Second time------------|
|--------------------------------------end with this-------|
|----------------------------------------------------------|
|----------------------------------0--1--3--4--3--1--------|
|--000--0-0-0-0--000-0-000--0------0--1--3--4--3--1--------|
   ***  * * * *  *** * ***  *

Guitar II
|----------------------------------------------------------|
|--15t-11t-------------------------------------------------|
|----------13t--10t--8t--7t-8t-10t---5@--------------------|
|----------------------------------------------------------|
|---------------------------------------00000000000--------|
|---------------------------------------00000000000--------|
                                        ***********
                                                              x2
|----------------------------------------------------------|
|-----------------------------------Second time------------|
|--------------------------------------end with this-------|
|----------------------------------------------------------|
|----------------------------------0--1--3--4--3--1--------|
|--000--0-0-0-0--000-0-000--0------0--1--3--4--3--1--------|
   ***  * * * *  *** * ***  *

Chorus
3:54

Guitar I
|----------------------------------------------------------|
|----------------------------------------------------------|
|----------------------------------------------------------|
|--0--------------8-------------0-------------4---------0--|  x2
|--0--------------8-------------0-------------4---------0--|
|--0--0-0-0-0-0-0-8-0-0-0-0-0-0-0-0-0-0-0-0-0-4---------0--|
      * * * * * *   * * * * * *   * * * * * *

Guitar II  (some effect, maybe even keys or something)
|----------------------------------------------------------|
|----------------------------------------------------------|
|----------------------------------------------------------|
|-------------------------------------------------------0--|  x2
|-----7--3--0-----8--3--0----7--3--0-------7--6--4--3---0--|
|-------------------------------------------------------0--|


Ending
4:11

Guitar I
|----------------------------------------------------------|
|----------------------------------------------------------|
|---7--------8---------------------------------------------|
|---------------------------1------------------------------|
|---5--------6--------------1------------------------------|
|------0-0-0-------0-0-0----1------------------------------|

Guitar II
|----------------------------------------------------------|
|----------------------------------------------------------|
|----------------------------------------------------------|
|---0--------1--------------1------------------------------|
|---0--------1--------------1------------------------------|
|---0--0-0-0-1-----0-0-0----1------------------------------|

Добавлено: 25.04.2012
Другие материалы по этой песне:

Страница создана 25.04.2012
http://primanota.ru/bloodbath/treasonous-chords.htm
Привет, Гость.
Предлагаем пройти революционный курс по гитаре.
Подарок от PrimaNota.Ru, забирай!