PrimaNota.ru - самый крупный в мире бесплатный архив песенных текстов, аккордов, табулатур и нот


Bloodbath - Sick Salvation - текст песни, таба, видео

Регистрация Запомнить меня
Войти через:  Facebook Google Twitter Vk Yandex Mail.ru

Bloodbath - Sick Salvation - текст песни, таба, видео

Печатать
Просмотров: 167
Авторы: Bloodbath

 
SONG: Sick Salvation
ARTIST: Bloodbath
ALBUM : Unblessing the Purtiy (EP)

Tuning (High to Low): B-F#-D-A-E-A (DROP A)

PM- Palm mute     * - Pinch Harmonic             ^ - strum upwards
\ - Slide down    > - let ring                   = - tremelo picking
/ - Slide up      h - hammer on
~ - Vibrato       p - pull off
w - wide vibrato  b(1/4) - Bend (step)
. - Stoccato      br(1/4) - Bend release (step)    


INTRO GTR.I
Pt.A             
B |--------------------------------------|
F#|--------------------------------------|
D |--------------------------------------|
A |--------------------------------------|
E |----------------------0==1==----------|
A |-4====5====4====5==4==------4====5====|
                                                 

INTRO GTR.II
Pt.A                                    
B |-------------------------------------| 
F#|-------------------------------------|
D |---------------.---------------------|
A |-4>--------4-4-4------------4>-------|
E |-4>--------4-4-4------------4>-------|
A |-4>--------4-4-4------------4>-------|
               ^                        

INTRO (together)
Pt.B
B |---------------------------|
F#|---------------------------|
D |---------------------------|
A |---------------------------|
E |-2-3-2-0-2-----1--2--------|
A |------------5--------4--3--|
               PM       PM--|

Riff 1 
Pt.A             Pt.B             Pt.C               Pt.D
B |-------------|----------------|------------------|----------------------|
F#|-------------|----------------|------------------|----------------------|
D |-------------|----------------|------------------|----------------------|
A |-------------|--------------1=|----------------1=|4----------------.----|
E |--2===--3====|--2===--3=2=3=--|--3===--2=--2=----|-------3=2=------2----|
A |2-----2------|2----2----------|2-----2---2---2---|--4====----4--3--2----|
                                                                PM--|
 
Riff 1 Sequence:
Pt.A
Pt.B
PT.A
Pt.C
Pt.A
Pt.B
Pt.A
Pt.E

Riff 2A
Pt.A             Pt.B                  Pt.C
B |-------------|---------------------|---------------------|
F#|-------------|---------------------|---------------------|
D |-------------|---------------------|---------------------|
A |-------------|---------------------|---------------------|
E |-------------|---------------------|---------------------|
A |-2-2-2-2-3-2-|-2-2-3-2-2-2-3-2-2-2-|-5-3-6-5-3-3-7-6-3-3-|

Pt.D                                 Pt.E                    Pt.F
B |---------------------------------|-----------------------|----|
F#|---------------------------------|-----------------------|----|
D |---------------------------------|-----------------------|----|
A |---------------------------------|-4-5-----9-8-----4--5--|-6>-|
E |---------------------------------|-2-3-----7-6-----2--3--|-4>-|
A |-6-6-6-6-6-6-6-6-5-3-2-9-7-6-4-3-|-----0-0-----0-0-------|----|
                                         PM-|    PM------|


Riff 2 Sequence:
Pt.A
Pt.B
PT.A
Pt.C
Pt.A
Pt.B
Pt.D
Pt.A
Pt.B
Pt.A
Pt.C
Pt.A
Pt.B
Pt.E


Riff 2B (Contagious is the one...)
B |--------------------------------------|
F#|--------------------------------------|
D |--------------------------------------|
A |--------------------------------------|
E |---2===--3====--2===--6-5-3-3-7-6-3-3-|
A |-2-----2------2-----2-----------------|


Riff 2 Sequence, but replace Pt.E with Pt.F 


INTRO Pt.B


Riff 3 (together) (Antichrist, rise before us...)
Pt.A
B |---------------------------------------|
F#|---------------------------------------|
D |---------------------------------------|
A |---------------------------------------|
E |----------------6==5==---2======-------|
A |-5====6==5=6=9==------8==-------2======|

Riff 3 GTR.I
Pt.B
B |-------------------------|
F#|-------------------------|
D |-------------------------|
A |-------------4==3==1==0==|
E |-2====3==2=3=------------|
A |-------------------------|

Riff 3 GTR.II
Pt.B
B |-------------------------|
F#|-------------------------|
D |-------------------------|
A |-------------------------|
E |-------------------------|
A |-5====6==5=6=9==8==6==5==|

Riff 3 (together)
Pt.C
B |-------------|
F#|-------------|
D |-6>----------|
A |-6>----7>----|
E |-4>----7>----|
A |-------7>----|


========= Synthetic Pause ===========


Riff 4
Pt.A (Together)              Pt.B (GTR.I)          Pt.B (GTR.II)
B |-------------------------|---------------------|---------------------|
F#|-------------------------|---------------------|---------------------|
D |-------------------------|---------------------|---------------------|
A |-2------------3--2--3--2-|----------------*----|----------------*----|
E |-2------------3--2--3--2-|-5-4-3w-----3-2-3w---|-8-7-6w-----6-5-3w---|
A |-2----2-2-2-2-3--2--3--2-|----------0----------|----------0----------|
         PM-----|   ^     ^            PM                    PM

Riff 4 Sequence:
Pt.A x3       
Pt.B 
Play alltogether four times



.............................................................................

SOLO

PART I
B |-------------------------------------------|
F#|-----------12~~-11--12-11------------------|
D |-------9------------------11~~-11/12-12~~--|
A |---------9---------------------------------|
E |--/7~~-------------------------------------|
A |-------------------------------------------|

B |-------------------------------------------|
F#|----------------------------------17~~-----|
D |-------------17/20-17----------------------|
A |-------16-19----------19-16----16----------|
E |-15-18----------------------18-------------|
A |-------------------------------------------|
    PM---|

PART II
B |-------------------------------------------------------|
F#|-------------------------------------------17-18-17----|
D |-------------------------------15-16-15-------------19-|
A |-------------------14-15-14-------------17-------------|
E |-------13-14-13-------------17-------------------------|
A |-17-16----------17-------------------------------------|
    PM---| 

B |-15---14-15-12-15----15-------------------------|
F#|-----------------15-----12-13----12-------------|
D |------------------------------14----12-14-11-12-|
A |------------------------------------------------|
E |------------------------------------------------|
A |------------------------------------------------|

PART III (Fast run)     
B |----------------------------------------------|
F#|----------------------------------------------|
D |-17-15-14-------------------------------------|
A |----------17-15-14-17-15-14-------------------|
E |----------------------------17-15-14-17-15-14-|
A |----------------------------------------------|

B |----------------------------------------|
F#|----------------------------------------|
D |----------------------------------------| 
A |------------------------------------*---|
E |----------------------------9bh-----9~~-|
A |-19-17-16-19-17-16-17-16-14-------------|

PART IV
B |-22bf-19-22--bf-22-19--------------15h19p15-----------|
F#|---------------------------------17--------17---------|
D |----------------------16~~-----16------------16-------|
A |-----------------------------17----------------17-----|
E |---------------------------19--------------------19~--|
A |------------------------------------------------------|

PART V
B |-18----19----20----21-------22bf~~--|
F#|----17----17----17----17------------|
D |-------------------------18---------|
A |------------------------------------|
E |------------------------------------|
A |------------------------------------|

.............................................................................


Rythm under solo:
Riff 4 Sequence:
Pt.A x3
Pt.B
Play all together twice
Pt.A x3


Bridge
B |--------------|
F#|--------------|
D |--.--.--.--.--|
A |--2--2--2--2--|
E |--2--2--2--2--|
A |--2--2--2--2--|


========= Bass Bridge ===========


Bridge 2
GTR.I
B |------------------------------------------|
F#|------------------------------------------|
D |------------------------------------------|
A |--2>----------------2-3-----7-6-----2--3--|
E |--2>----------------0-1-----5-4-----0--1--|
A |--2>--------------------0-0-----0-0-------|
                           PM-|    PM------|

GTR.II
NOTE: All notes are natural harmonics, and the these lines: \ / _
      are a general outline of what the whammy bar should do;
      anything lower then the D string is a depressed whammy,
      anything higher is one that is pulled back.

B |-------__----------------------------------9-------/---|
F#|--9---/--\------------------9---/\-----/\-------/------|
D |-----/----\--------------------/--\---/--\_--/---------|
A |---_/------\/\/\/\------------/----\_/-----------------|
E |------------------\/\/\/\___---------------------------|
A |-------------------------------------------------------|


Riff 2 Pt.F (Together)


INTRO Pt.B


Riff 3 Pt.A
       Pt.B


Bridge 3
B |----------------------------------------------------------------|
F#|----------------------------------------------------------------|
D |----------------------------------------------------------------|
A |--9--8--9--10--9--8--9--------4---------------------------------|
E |--7--6--7--8---7--6--7--------2--------5--------2-3-2-0-2h3~----|
A |------------------------0--0-----0--0--5--0--0------------------|
                                PM--|    PM--|    PM--|


Riff 1 Sequence:
Pt.A
Pt.B
PT.A
Pt.C
Pt.A
Pt.B
Pt.A
Pt.E  END
Добавлено: 10.03.2012
Другие материалы по этой песне:
  • Аккорды и текст

Страница создана 10.03.2012
http://primanota.ru/bloodbath/sick-salvation-chords.htm
Привет, Гость.
Предлагаем пройти революционный курс по гитаре.
Подарок от PrimaNota.Ru, забирай!