PrimaNota.ru - самый крупный в мире бесплатный архив песенных текстов, аккордов, табулатур и нот


Bloodbath - Trail Of Insects - аккорды и текст, таба, видео

Регистрация Запомнить меня
Войти через:  Facebook Google Twitter Vk Yandex Mail.ru

Bloodbath - Trail Of Insects - аккорды и текст, таба, видео

Печатать
Просмотров: 143
Авторы: Bloodbath

Trail Of Insects
Bloodbath


BLOODBATH - TRAIL OF INSECTS
transcribed by Jon (YourDeadGroom)
version 1.0
For Questions, Comments, Newest Version, or Corrections,
take some guitar lessons and figure it out yourself.

Notes: This is notated in E to make reading it less confusing, but each string
should be tuned down to: (lowest to highest) B, E, A, D, F#, B.
Notes with a '' next to it indicate that it should be speed picked.
'h' = hammer on, 'p' = pull off.
Spacing and barlines are a rough approximation of rhythm only.
Riffs are only indicated the first time they are played, it's up to you to
figure out where they may get repeated.
The use of '||' indicates the end of a riff/section.

0:00
E-------------------------||
B-------------------------||
G-------------------------||
D-------------------------||
A-2--2--2--2--2--2--2--2--||
E-0--0--0--0--0--0--0--0--||

0:02 (speed pick all)
E------------------||
B------------------||
G------------------||
D------------------||
A---7----7----7-8--||
E-0----8----7------||

0:11 (speed pick all)
E----------------------|----------------------||
B----------------------|----------------------||
G----------------------|----------------------||
D----------------------|----------------------||
A---7-9-10-9----8-7-10-|---7-9-10-9----8-10-7-||
E-0----------10--------|-0----------10--------||

0:28
E---------------------------------------------||
B---------------------------------------------||
G---------------------------------------------||
D---------------------2----------------5-2--||
A-2-2--2-2-3---2------------2-2-2-2--2--------||
E-0-0--0-0-1---0--0-3----3--0-0-0-0-----------||

1:37
E-------||
B-------||
G-------||
D-------||
A-2-----||
E-0-----||

1:41 (speed pick all)(Rhythm guitar is in '()', don't speed pick that )
E-----------------------------------||
B-----------------------------------||
G-----12------11----12-10-----------||
D--9-----9-10-------------10-9-10---||
A-----------------------------------||
E-(4)-----------(11)----------------||

1:49 (guitar 1)(speed pick all)
E-------------------------||
B-------------------------||
G----7-----6---7-5--------||
D-4----4-5---------5-4-5--||
A-------------------------||
E-------------------------||

1:49 (guitar 2)(speed pick all)
E-------------------------||
B-------------------------||
G-------------------------||
D-------------------------||
A----5-----4---5-3--------||
E-2----2-3---------3-2-3--||

2:02 (guitar 1)
E-----------------------------------||
B-----------------------------------||
G----7------6---------------------||
D-4----4-5-----------------------||
A-----------------------2--2--------||
E---------------3-2-1---0--0-0-0-3--||

2:02 (guitar 2)
E-----------------------------------||
B-----------------------------------||
G-----------------------------------||
D-----------------------------------||
A---5------4----------2--2--------||
E-2---2-3----3-2-1---0--0-0-0-3--||

2:07 (guitar 1)(speed pick all)
E------------------------||
B------------------------||
G----9-----8--9-7--------||
D-6----6-7--------7-6-7--||
A------------------------||
E------------------------||

2:07 (guitar 2)(speed pick all)
E------------------------||
B------------------------||
G------------------------||
D------------------------||
A----7-----6--7-5--------||
E-4----4-5--------5-4-5--||

2:44
E-----------------||
B-----------------||
G-----------------||
D-----------------||
A-4---3---2--6----||
E-2---1---0--4----||

3:23 (no rhythm indicated. Some of the notes are bent to rather than fretted
at that particular place, figure it out yourself )
E---------------------11--10--11-------------------14--13--12--||
B-12--9--8--------11--------------12--14p12p11h12--------------||
G-----------9--8-----------------------------------------------||
D--------------------------------------------------------------||
A--------------------------------------------------------------||
E--------------------------------------------------------------||
This part gets repeated a few times.......
Добавлено: 18.01.2014
Вам также может быть интересно:
Другие материалы по этой песне:
  • Аккорды и текст

Страница создана 14.05.2012
http://primanota.ru/bloodbath/trail-of-insects-chords.htm
Привет, Гость.
Предлагаем пройти революционный курс по гитаре.
Подарок от PrimaNota.Ru, забирай!