PrimaNota.ru - самый крупный в мире бесплатный архив песенных текстов, аккордов, табулатур и нот


Bloodbath - Unite In Pain - таба, видео

Регистрация Запомнить меня
Войти через:  Facebook Google Twitter Vk Yandex Mail.ru

Bloodbath - Unite In Pain - таба, видео

Печатать
Просмотров: 83
Уроки эстрадного вокала в Санкт-Петербурге
Авторы музыки: Anders Nyström
Авторы текста: Nick Holmes
 UNITE IN PAIN - Bloodbath
-------------------------------------------------------------------------------
Tabbed by: WanaxEneiron
E-mail: wanaxeneiron@gmail.com

Fucking killer song. I was surprised no one else had tabbed it already, so here's my best shot at it. Please
give suggestions/improvements but also please be nice as its my first tab!

Tuning: B Standard

(Intro Solo)
Underneath Solo:

e|----------------------------------------------------------------------------------------------------------|
B|----------------------------------------------------------------------------------------------------------|
G|-------------------------------------------------------------------------------5--------------------------|
D|-------------------------------------------------------------------------------5--------------------------|
A|---2-----2-----2-------------2-----2-----2---3-3-0------2-----2-----2----------3------------3-1-0---------|
E|-0-0-x-0-0-x-0-0-x-3-3--1--0-0-x-0-0-x-0-0-x-------1--0-0-x-0-0-x-0-0-x-3-3--1---3--4-3-1-3---------------|

e|----------------------------------------------------------------------------------------------------------|
B|----------------------------------------------------------------------------------------------------------|
G|-------------------------------------------------------------------------------5--------------------------|
D|-------------------------------------------------------------------------------5--------------------------|
A|---2-----2-----2-------------2-----2-----2---3-3-0------2-----2-----2----------3--------------------------|
E|-0-0-x-0-0-x-0-0-x-3-3--1--0-0-x-0-0-x-0-0-x-------1--0-0-x-0-0-x-0-0-x-3-3--1---3--3h4p3p1h3-1h3h4-------|

[0:20] 
e|----------------------------------------------------------------------------------------------------------|
B|----------------------------------------------------------------------------------------------------------|
G|------------------------------------------------------------------------------------------------10--------|
D|--------------------------------------------9--7--10--------------------------------8---10-12---10--------|
A|---------------------------7--5-8-7---------7--5--8---[pick slide]-7-8-7-5-7-5------8---10-12---8---------|
E|-0-0-0-0-0-0-0-0-0-0-0-0-0---0------0-0-0-0--0---0--0--------------------------6-7--6---8--10-------------|

[0:29] [x2]
e|----------------------------------------------------------------------------------------------------------|
B|----------------------------------------------------------------------------------------------------------|
G|----------------------------------------------------------------------------------------------------------|
D|----------------------------------------------------------------------------------------------------------|
A|-8-7---------------------7--5-8-7-------------------------------------------------------------------------|
E|-----0-0-0-0-0-1-0-0-0-0---0-------0-0-0-0-0--3-3-3---1-1-1---6-------------------------------------------|

e|----------------------------------------------------------------------------------------------------------|
B|----------------------------------------------------------------------------------------------------------|
G|----------------------------------------------10----------------------------------------------------------|
D|----------------------------------8---10-12---10----------------------------------------------------------|
A|-7---------------7-8-7-5-7-5------8---10-12---8-----------------------------------------------------------|
E|-0-0-0-0-0-0-0-0-------------6-7--6---8--10---------------------------------------------------------------|

[0:50] 
e|----------------------------------------------------------------------------------------------------------|
B|----------------------------------------------------------------------------------------------------------|
G|-------------------------------------------------------------------------------5--------------------------|
D|-------------------------------------------------------------------------------5--------------------------|
A|---2-----2-----2-------------2-----2-----2---3-3-0------2-----2-----2----------3------------3-1-0---------|
E|-0-0-x-0-0-x-0-0-x-3-3--1--0-0-x-0-0-x-0-0-x-------1--0-0-x-0-0-x-0-0-x-3-3--1---3--4-3-1-3---------------|

e|----------------------------------------------------------------------------------------------------------|
B|----------------------------------------------------------------------------------------------------------|
G|-------------------------------------------------------------------------------5--------------------------|
D|-------------------------------------------------------------------------------5--------------------------|
A|---2-----2-----2-------------2-----2-----2---3-3-0------2-----2-----2----------3--------------------------|
E|-0-0-x-0-0-x-0-0-x-3-3--1--0-0-x-0-0-x-0-0-x-------1--0-0-x-0-0-x-0-0-x-3-3--1---3--3h4p3p1h3-1h3h4-------|

[1:09] Chorus

e|----------------------------------------------------------------------------------------------------------|
B|----------------------------------------------------------------------------------------------------------|
G|--------------------------------------------9---7---10----------------------------------------------------|
D|--------------------------------------------9---7---10----------------------------------------------------|
A|-7----------------------7--5-8-7------------7---5---8-----------------------------------------------------|
E|-0--0-0-0-0-0-1-0-0-0-0--0-------0-0-0-0-0----0---0-------------------------------------------------------|

e|----------------------------------------------------------------------------------------------------------|
B|----------------------------------------------------------------------------------------------------------|
G|----------------------------------------------10----------------------------------------------------------|
D|----------------------------------8---10-12---10----------------------------------------------------------|
A|-7---------------7-8-7-5-7-5------8---10-12---8-----------------------------------------------------------|
E|-0-0-0-0-0-0-0-0-------------6-7--6---8--10---------------------------------------------------------------|

e|----------------------------------------------------------------------------------------------------------|
B|----------------------------------------------------------------------------------------------------------|
G|----------------------------------------------------------------------------------------------------------|
D|----------------------------------------------------------------------------------------------------------|
A|---7---------------------7--5-8-7-------------------------------------------------------------------------|
E|---0-0-0-0-0-0-1-0-0-0-0---0-------0-0-0-0-0--3-3-3---1-1-1---6-------------------------------------------|

e|----------------------------------------------------------------------------------------------------------|
B|----------------------------------------------------------------------------------------------------------|
G|----------------------------------------------10----------------------------------------------------------|
D|----------------------------------8---10-12---10----------------------------------------------------------|
A|-7---------------7-8-7-5-7-5------8---10-12---8-----------------------------------------------------------|
E|-0-0-0-0-0-0-0-0-------------6-7--6---8--10---------------------------------------------------------------|

[1:28] Rhythm [x2]

e|----------------------------------------------------------------------------------------------------------|
B|----------------------------------------------------------------------------------------------------------|
G|----------------------------------------------------------------------------------------------------------|
D|----------------------------------------------------------------------------------------------------------|
A|-2----------10---------6----------6----------10---------2-------------------------------------------------|
E|-0----------8----------4----------4----------8----------0-------------------------------------------------|

[1:28] Lead [x4]

e|----------------------------------------------------------------------------------------------------------|
B|-----8-8-----7-7------------------------------------------------------------------------------------------|
G|---9-----9-8----------------------------------------------------------------------------------------------|
D|----------------------------------------------------------------------------------------------------------|
A|----------------------------------------------------------------------------------------------------------|
E|----------------------------------------------------------------------------------------------------------|

[1:57] [x4]

e|----------------------------------------------------------------------------------------------------------|
B|----------------------------------------------------------------------------------------------------------|
G|---------------------------------7h8h9--------------------------------------------------------------------|
D|-----9---------------------7h8h9------------------------10---------9--10-9--12---------------9--10-9--12--|
A|-2---8---2-----------0h3h5-------------------------2----8----2-----7--8--7--10--[last time]--7--8--7--10--|
E|-0-x---x-0-----0h3h5-------------------------------0-x-----x-0--------------------------------------------|

[2:17]

e|----------------------------------------------------------------------------------------------------------|
B|----------------------------------------------------------------------------------------------------------|
G|-99999999-88888888-1010101010101010-----------------------------------------------------------------------|
D|----------------------------------------9---7---10--------------------------------------------------------|
A|----------------------------------------7---5---8---------------------------------------------------------|
E|------------------------------------------0---0-----------------------------------------------------------|

e|----------------------------------------------------------------------------------------------------------|
B|----------------------------------------------------------------------------------------------------------|
G|----------------------------------------------10----------------------------------------------------------|
D|----------------------------------8---10-12---10----------------------------------------------------------|
A|-7---------------7-8-7-5-7-5------8---10-12---8-----------------------------------------------------------|
E|-0-0-0-0-0-0-0-0-------------6-7--6---8--10---------------------------------------------------------------|

e|----------------------------------------------------------------------------------------------------------|
B|----------------------------------------------------------------------------------------------------------|
G|----------------------------------------------------------------------------------------------------------|
D|----------------------------------------------------------------------------------------------------------|
A|-8-7---------------------7--5-8-7-------------------------------------------------------------------------|
E|-----0-0-0-0-0-1-0-0-0-0---0-------0-0-0-0-0--3-3-3---1-1-1---6-------------------------------------------|

[2:36]

e|----------------------------------------------------------------------------------------------------------|
B|----------------------------------------------------------------------------------------------------------|
G|-------------------------------------------------------------------------------5--------------------------|
D|-------------------------------------------------------------------------------5--------------------------|
A|---2-----2-----2-------------2-----2-----2---3-3-0------2-----2-----2----------3------------3-1-0---------|
E|-0-0-x-0-0-x-0-0-x-3-3--1--0-0-x-0-0-x-0-0-x-------1--0-0-x-0-0-x-0-0-x-3-3--1---3--4-3-1-3---------------|

e|----------------------------------------------------------------------------------------------------------|
B|----------------------------------------------------------------------------------------------------------|
G|-------------------------------------------------------------------------------5--------------------------|
D|-------------------------------------------------------------------------------5--------------------------|
A|---2-----2-----2-------------2-----2-----2---3-3-0------2-----2-----2----------3--------------------------|
E|-0-0-x-0-0-x-0-0-x-3-3--1--0-0-x-0-0-x-0-0-x-------1--0-0-x-0-0-x-0-0-x-3-3--1---3--3h4p3p1h3-1h3h4-------|

[2:56] Rhythm [x2]

e|----------------------------------------------------------------------------------------------------------|
B|----------------------------------------------------------------------------------------------------------|
G|----------------------------------------------------------------------------------------------------------|
D|----------------------------------------------------------------------------------------------------------|
A|---7----------------------7--5-8-7------------------------------------------------------------------------|
E|---0---0-0-0-0-0-1-0-0-0-0----0-------0-0-0-0-0--3-3-3---1-1-1---6----------------------------------------|

e|----------------------------------------------------------------------------------------------------------|
B|----------------------------------------------------------------------------------------------------------|
G|----------------------------------------------10----------------------------------------------------------|
D|----------------------------------8---10-12---10----------------------------------------------------------|
A|-7---------------7-8-7-5-7-5------8---10-12---8-----------------------------------------------------------|
E|-0-0-0-0-0-0-0-0-------------6-7--6---8--10---------------------------------------------------------------|

[2:56] Lead [x2]

e|----------------------------------------------------------------------------------------------------------|
B|-------------------------------------12121212-13131313----------------------------------------------------|
G|-99999999-88888888-1010101010101010-----------------------------------------------------------------------|
D|----------------------------------------------------------------------------------------------------------|
A|----------------------------------------------------------------------------------------------------------|
E|----------------------------------------------------------------------------------------------------------|

e|----------------------------------------------------------------------------------------------------------|
B|----------------------------------------------------------------------------------------------------------|
G|-99999999-88888888--------------10------------------------------------------------------------------------|
D|---------------------8--10-12---10------------------------------------------------------------------------|
A|---------------------8--10-12---8-------------------------------------------------------------------------|
E|---------------------6--8--10-----------------------------------------------------------------------------|

[3:15] Rhythm 

e|----------------------------------------------------------------------------------------------------------|
B|----------------------------------------------------------------------------------------------------------|
G|----------------------------------------------------------------------------------------------------------|
D|----------------------------------------------------------------------------------------------------------|
A|-2----------10---------6----------6----------10---------2-------------------------------------------------|
E|-0----------8----------4----------4----------8----------0-------------------------------------------------|

[3:15] Lead [x2]


e|----------------------------------------------------------------------------------------------------------|
B|-----8-8-----7-7------------------------------------------------------------------------------------------|
G|---9-----9-8----------------------------------------------------------------------------------------------|
D|----------------------------------------------------------------------------------------------------------|
A|----------------------------------------------------------------------------------------------------------|
E|----------------------------------------------------------------------------------------------------------|

[3:43]

e|----------------------------------------------------------------------------------------------------------|
B|----------------------------------------------------------------------------------------------------------|
G|---------------------------------7h8h9--------------------------------------------------------------------|
D|-----9---------------------7h8h9------------------------10---------9--10-9--12-----9----10----------------|
A|-2---8---2-----------0h3h5-------------------------2----8----2-----7--8--7--10-----7----8----2------------|
E|-0-x---x-0-----0h3h5-------------------------------0-x-----x-0-----------------------x-----x-0------------|



************************************

| /   slide up
| \   slide down
| h   hammer-on
| p   pull-off
| ~   vibrato
| +   harmonic
| x   Mute note
| b   Bend
| pb  Pre-bend
| br  Bend release
| pbr Pre-bend release
| brb Bend release bend

************************************
Добавлено: 19.12.2015
Другие материалы по этой песне:
  • Аккорды и текст

Страница создана 19.12.2015
http://primanota.ru/bloodbath/unite-in-pain-chords.htm
Привет, Гость.
Предлагаем пройти революционный курс по гитаре.
Подарок от PrimaNota.Ru, забирай!