PrimaNota.ru - самый крупный в мире бесплатный архив песенных текстов, аккордов, табулатур и нот


Blink 182 - Carosel - бас-таба, видео

Регистрация Запомнить меня
Войти через:  Facebook Google Twitter Vk Yandex Mail.ru

Blink 182 - Carosel - бас-таба, видео

Печатать
Просмотров: 94


Intro Part 1	        Carosel

G---11-11-12-14-12-11-----6-6-7-9-7-6-------9-9-11-12-11-9-11--7-7-7-
D-0-------------------12--7--------------7-/-----9----------------5-5---5-5---5---
A--------------------------------------------------------------------------------
E--------------------------------------------------------------------------------

Part 2
Hold the D string notes, as before.
G-11-11-12-14-12-11--6-6-7-9-7-6--9-9-11-12-11-9-11-77777777
D-0-------------------12--7-------------7-/-9-----------------------55555555
A--------------------------------------------------------------------------------
E--------------------------------------------------------------------------------

Part 3,
play 4 times
G-11-11-11-11-11-11--9-9-9-9-9-9-/-11-11-11-11-11-11--7-7-7-7-7-7-
9-0--0--0--0--0--0---7-7-7-7-7-7-/-9---9--9--9--9--9--5-5-5-5-5-5-
A-------------------------------------------------------------------
E-------------------------------------------------------------------
tom plays this little riff twice before Mark comes in

Now bust into this little riff that Mark plays behind the guitar.  Listen carefully, its there.  Play it twice.
G-11-11-11-11-11-11-11--9--9-9-9-9-9-9-11-11-11-11-11-11-11-7-9--7-6-
D--0--0--0--0--0--0--0--0-7-7-7-7-7-7-7-7--9-9-9-9-9---9--9--9--9---------
A-----------------------------------------------------------------------------
E-----------------------------------------------------------------------------

Now onto the verse
G--------------------------------------------------------------------------------
D-------------------------------------------------/-5-5-5-5-5-5-5-5-/-7--5-4----
A-5-5-5-5-5-5-5-5-----------------2-2-2-2-2-2-2-2-------------------------------
E-----------------5-5-5-5-5-5-5-5------------------------------------------------

The little /7 is one of those little flourishes Mark used to do.
G--------------------------------------------------------------------------------
D----------------------------------------------------5-5-5-5-5-5-5-5-/-7--5-4---
A-5-5-5-5-5-5-5-5-----------------2-2-2-2-2-2-2-2-/------------------------------
E-----------------5-5-5-5-5-5-5-5------------------------------------------------

  (I Talk to you every now and then)     x4
G-11-11-11-11-11-11-11-9-9-9-9-9-9-9-11-11-11-11-11-11-11-7-7-7-7-7-7
D--0--0--0--0--0--0--0--0--7-7-7-7-7-7-7-7-9-9-9--9--9--9--9-9--5-5-5-5-5-5-5
A--------------------------------------------------------------------------------
E--------------------------------------------------------------------------------

Just play that until Tom sings Just you wait and see.  Thats when you go on to this riff 4 times before going back to the chorus.            G----------------------------------------------------------------
D---------------------------------/7-7-7-7-7-7-7-7-5-5-5-5-5-5-5-7
A-5-5-5-5-5-5-5-5-7-7-7-7-7-7-7-7--------------------------------
E----------------------------------------------------------------

(I Talk to you every now and then)     x4
G-11-11-11-11-11-11-11-9-9-9-9-9-9-9-11-11-11-11-11-11-11-7-7-7-7-7-7
D--0--0--0--0--0--0--0--0--7-7-7-7-7-7-7-7-9-9-9--9--9--9--9-9--5-5-5-5-5-5-5
A--------------------------------------------------------------------------------
E--------------------------------------------------------------------------------

The little /7 is one of those little flourishes Mark used to do.
G--------------------------------------------------------------------------------
D----------------------------------------------------5-5-5-5-5-5-5-5-/-7--5-4---
A-5-5-5-5-5-5-5-5-----------------2-2-2-2-2-2-2-2-/------------------------------
E-----------------5-5-5-5-5-5-5-5------------------------------------------------

After playing the verse for a while, go to the guitar solo and play this:
G------------------------------------------
D---------------------------/---------------
A-5-----2-----5-----2-2-2-2----------------
E----5-----3-----5-------------3-3-3-3-3-3-

And then this several times:
G----------------------------------------------------------------
D--------------------------------/-7-7-7-7-7-7-7-5-5-5-5-5-5-5-/7
A-5-5-5-5-5-5-5-5-7-7-7-7-7-7-7-7-------------------------------
E----------------------------------------------------------------
Play the last riff until the end, and then finish on an A-5

This may be a bit hard to follow but if you listen to the song you'll get it.


Добавлено: 09.02.2014
Другие материалы по этой песне:
  • Аккорды и текст

Страница создана 09.02.2014
http://primanota.ru/blink-182/carosel-chords.htm
Привет, Гость.
Предлагаем пройти революционный курс по гитаре.
Подарок от PrimaNota.Ru, забирай!