PrimaNota.ru - самый крупный в мире бесплатный архив песенных текстов, аккордов, табулатур и нот


Blink 182 - Anthem part one - таба, видео

Регистрация Запомнить меня
Войти через:  Facebook Google Twitter Vk Yandex Mail.ru

Blink 182 - Anthem part one - таба, видео

Печатать
Просмотров: 136


-------------------------------------------------------------------------------
		ANTHEM PART ONE - Blink 182
-------------------------------------------------------------------------------
Tabbed by:Vash_The_Stampede
Email:none

Tuning:E
 The one that FretPlay had was hard to play. Here's a simpler way...It sounds right...
Intro/Verse

e|---------------------------------------------------------------------------|
B|---------------------------------------------------------------------------|
G|-44444-44444--88888-88888--99999---------99999-----------------------------|
D|-44444-44444--88888-88888--99999--44444--99999-44444-----------------------|
A|-22222-22222--66666-66666--77777--44444--77777-44444-----------------------|
E|----------------------------------22222--------22222-----------------------|


Chorus
e|---------------------------------------------------------------------------|
B|---------------------------------------------------------------------------|
G|---------------------------------------------------------------------------|
D|--6666-4444-2222-4444-6666-4444-2222-4444----------------------------------|
A|--6666-4444-2222-4444-6666-4444-2222-4444----------------------------------|
E|--4444-2222-0000-2222-4444-2222-0000-2222----------------------------------|


Fill
e|---------------------------------------------------------------------------|
B|---------------------------------------------------------------------------|
G|---------------------------------------------------------------------------|
D|-4444-4444-4444--2---------------------------------------------------------|
A|-2222-2222-2222--2---------------------------------------------------------|
E|-----------------0----(pickslide)------------------------------------------|
x1

Verse 2
e|---------------------------------------------------------------------------|
B|---------------------------------------------------------------------------|
G|-4-----9999------9999------------------------------------------------------|
D|-4-x32-9999-4444-9999-4444-------------------------------------------------|
A|-2-----7777-4444-7777-4444-------------------------------------------------|
E|------------2222------2222-------------------------------------------------|

Post Chorus
Scince this part is hard to follow, I'll put the Lyrics to show you where the chord changes

You don't belong you left the kids to carry on
e|---------------------------------------------------------------------------|
B|---------------------------------------------------------------------------|
G|---------------------------------------------------------------------------|
D|---------------------------------------------------------------------------|
A|-22222222222---------------------------------------------------------------|
E|-----------------00000000--66666666---44444444-2222------------------------|


You planned thier    Fall too bad your wrong
e|---------------------------------------------------------------------------|
B|---------------------------------------------------------------------------|
G|---------------------------------------------------------------------------|
D|---------------------------------------------------------------------------|
A|--------------------22222222-----------------------------------------------|
E|-2222-----------000--------------------------------------------------------|
PM                ...

Don't need a mom dad slave drive song
e|---------------------------------------------------------------------------|
B|---------------------------------------------------------------------------|
G|---------------------------------------------------------------------------|
D|---------------------------------------------------------------------------|
A|---------------------------------------------------------------------------|
E|-666666666--22222222-------------------------------------------------------|


I Time Bomb
e|---------------------------------------------------------------------------|
B|---------------------------------------------------------------------------|
G|-4444444-------------------------------------------------------------------|
D|-4444444-22222222-66666666-44444444----------------------------------------|
A|-2222222-22222222-66666666-44444444----------------------------------------|
E|---------00000000-44444444-22222222----------------------------------------|

Interlude 1/Verse 3(clean)
e|-------------------------------------------------------------------------------------|
B|-------------------------------------------------------------------------------------|
G|-------------------------------------------------------------------------------------|
D|-----4----4----6----6----4----4----6-----6-------------------------------------------|
A|--44---44---44---44---44---44---44----44--------4----4----4----4----4----4----4----4-|
E|---------------------------------------------22---22---66---66---22---22---66---66---|

Interlude 2 (Clean)
e|---------------------------------------------------------------------------|
B|---------------------------------------------------------------------------|
G|---------------------------------------------------------------------------|
D|-1---4-1-----1------1------------------------------------------------------|
A|---2-----2-------2------2--------------------------------------------------|
E|-----------0---4------0----------------------------------------------------|


    Oder of play
-------------------
Intro         x1
verse         x2
chorus        x4
Fill          x1
Verse 2       x2
chorus        x4
post-chourus  x1
Verse 3       x6
Chorus        x4
Post-Chourus  x1
I Time Bomb
section       x2

| /  slide up
|   slide down
| h  hammer-on
| p  pull-off
| ~  vibrato
| +  harmonic
| x  Mute note
===============================================================================



Добавлено: 26.02.2014
Другие материалы по этой песне:
  • Аккорды и текст

Страница создана 26.02.2014
http://primanota.ru/blink-182/anthem-part-one-chords.htm
Привет, Гость.
Предлагаем пройти революционный курс по гитаре.
Подарок от PrimaNota.Ru, забирай!