PrimaNota.ru - самый крупный в мире бесплатный архив песенных текстов, аккордов, табулатур и нот


Blink 182 - Feeling this alternative punk version - таба, видео

Регистрация Запомнить меня
Войти через:  Facebook Google Twitter Vk Yandex Mail.ru

Blink 182 - Feeling this alternative punk version - таба, видео

Печатать
Просмотров: 139
Уроки эстрадного вокала в Санкт-Петербурге


Artist:Blink-182
Album:blink-182/blink-182(UK Bonus Track)/    Blink-182 (tour Edition)
Label:Geffen

Tab sumited by:AMD

email:ash_must_die@hotmail.com

''''''''''''''''''''''''''''''''
just drums

|----------------------------------------------------------------|
|----------------------------------------------------------------|
|----------------------------------------------------------------|
|----------------------------------------------------------------|

|----------------------------------------------------------------|
|----------------------------------------------------------------|
|----------------------------------------------------------------|
|--------------------------------------------6-6-------------6-6-|
|--------------------------------977-777-7779----977-777-7779----|
|----------------------------------------------------------------|
verse
|----------------------------------------------------------------|
|----------------------------------------------------------------|
|7777777777777777444444442222000077777777777777774444444422220000|
|----------------------------------------------------------------|

|----------------------------------------------------------------|
|----------------------------------------------------------------|
|----------------------------------------------------------------|
|------------6-6-------------6-6-------------6-6-------------6-6-|
|977-777-7779----977-777-7779----977-777-7779----977-777-7779----|
|----------------------------------------------------------------|

|----------------------------------------------------------------|
|----------------------------------------------------------------|
|7777777777777777444444442222000077777777777777774444444422220000|
|----------------------------------------------------------------|

|----------------------------------------------------------------|
|----------------------------------------------------------------|
|----------------------------------------------------------------|
|------------6-6-------------6-6-------------6-6-------------6-6-|
|977-777-7779----977-777-7779----977-777-7779----977-777-7779----|
|----------------------------------------------------------------|

chorus
|----------------------------------------------------------------|
|----------------------------------------------------------------|
|77777777------------------------77777777------------------------|
|--------777777779999999955555555--------777777779999999955555555|

|----------------------------------------------------------------|
|----------------------------------------------------------------|
|--------------------------------99------------------------------|
|--------------------------------99------------------------------|
|--------------------------------77------------------------------|
|--------------------------------00------------------------------|

|----------------|
|----------------|
|----------------|
|--------66667777|
|77779999--------|
|----------------|
verse
|----------------------------------------------------------------|
|----------------------------------------------------------------|
|--------------------------------77777777777777774444444422220000|
|----------------------------------------------------------------|

|----------------------------------------------------------------|
|----------------------------------------------------------------|
|----------------------------------------------------------------|
|------------6-6-------------6-6-------------6-6-------------6-6-|
|977-777-7779----977-777-7779----977-777-7779----977-777-7779----|
|----------------------------------------------------------------|

|----------------------------------------------------------------|
|----------------------------------------------------------------|
|7777777777777777444444442222000077777777777777774444444422220000|
|----------------------------------------------------------------|

|----------------------------------------------------------------|
|----------------------------------------------------------------|
|----------------------------------------------------------------|
|------------6-6-------------6-6-------------6-6-------------6-6-|
|977-777-7779----977-777-7779----977-777-7779----977-777-7779----|
|----------------------------------------------------------------|
chorus
|----------------------------------------------------------------|
|----------------------------------------------------------------|
|77777777------------------------77777777------------------------|
|--------777777779999999955555555--------777777779999999955555555|

|----------------------------------------------------------------|
|----------------------------------------------------------------|
|--------------------------------99------------------------------|
|--------------------------------99------------------------------|
|--------------------------------77------------------------------|
|--------------------------------00------------------------------|

marks little interlude thing
|----------------------------------------------------------------|
|----------------------------------------------------------------|
|----------------------------------------------------------------|
|----------------------------------------------------------------|
|----------------------------------------------------------------|
|----------------------------------------------------------------|

|----------------------------------------------------------------|
|----------------------------------------------------------------|
|9-9-9-9-------------------------9-9-9-9-------------------------|
|9-9-9-9-9-9-9-9-111111117-7-7-7-9-9-9-9-9-9-9-9-111111117-7-7-7-|
|7-7-7-7-9-9-9-9-111111117-7-7-7-7-7-7-7-9-9-9-9-111111117-7-7-7-|
|--------7-7-7-7-9-9-9-9-5-5-5-5---------7-7-7-7-9-9-9-9-5-5-5-5-|
pm...............................................................
chorus
|----------------------------------------------------------------|
|----------------------------------------------------------------|
|9-9-9-9-------------------------9-9-9-9-------------------------|
|9-9-9-9-9-9-9-9-111111117-7-7-7-9-9-9-9-9-9-9-9-111111117-7-7-7-|
|7-7-7-7-9-9-9-9-111111117-7-7-7-7-7-7-7-9-9-9-9-111111117-7-7-7-|
|--------7-7-7-7-9-9-9-9-5-5-5-5---------7-7-7-7-9-9-9-9-5-5-5-5-|

|----------------------------------------------------------------|
|----------------------------------------------------------------|
|9-9-9-9-------------------------9-9-9-9-------------------------|
|9-9-9-9-9-9-9-9-111111117-7-7-7-9-9-9-9-9-9-9-9-111111117-7-7-7-|
|7-7-7-7-9-9-9-9-111111117-7-7-7-7-7-7-7-9-9-9-9-111111117-7-7-7-|
|--------7-7-7-7-9-9-9-9-5-5-5-5---------7-7-7-7-9-9-9-9-5-5-5-5-|

|----------------------------------------------------------------|
|----------------------------------------------------------------|
|9-9-9-9-------------------------9-9-9-9-------------------------|
|9-9-9-9-9-9-9-9-111111117-7-7-7-9-9-9-9-9-9-9-9-111111117-7-7-7-|
|7-7-7-7-9-9-9-9-111111117-7-7-7-7-7-7-7-9-9-9-9-111111117-7-7-7-|
|--------7-7-7-7-9-9-9-9-5-5-5-5---------7-7-7-7-9-9-9-9-5-5-5-5-|

|----------------------------------------------------------------|
|----------------------------------------------------------------|
|9-9-9-9-------------------------9-9-9-9-------------------------|
|9-9-9-9-9-9-9-9-111111117-7-7-7-9-9-9-9-9-9-9-9-111111117-7-7-7-|
|7-7-7-7-9-9-9-9-111111117-7-7-7-7-7-7-7-9-9-9-9-111111117-7-7-7-|
|--------7-7-7-7-9-9-9-9-5-5-5-5---------7-7-7-7-9-9-9-9-5-5-5-5-|
fades out around here
|----------------------------------------------------------------|
|----------------------------------------------------------------|
|9-9-9-9-------------------------9-9-9-9-------------------------|
|9-9-9-9-9-9-9-9-111111117-7-7-7-9-9-9-9-9-9-9-9-111111117-7-7-7-|
|7-7-7-7-9-9-9-9-111111117-7-7-7-7-7-7-7-9-9-9-9-111111117-7-7-7-|
|--------7-7-7-7-9-9-9-9-5-5-5-5---------7-7-7-7-9-9-9-9-5-5-5-5-|


forgive me if my tab is wrong but i don't have
the cd and i can barely hear it on the down load
thingy other than that this song rocks
and i'm the first to try and tab the guitar part
later days

AMD

Добавлено: 12.10.2013
Другие материалы по этой песне:
  • Аккорды и текст

Страница создана 12.10.2013
http://primanota.ru/blink-182/feeling-this-alternative-punk-version-chords.htm
Привет, Гость.
Предлагаем пройти революционный курс по гитаре.
Подарок от PrimaNota.Ru, забирай!