PrimaNota.ru - самый крупный в мире бесплатный архив песенных текстов, аккордов, табулатур и нот


Blink 182 - Anthem pt 21 - таба, видео

Регистрация Запомнить меня
Войти через:  Facebook Google Twitter Vk Yandex Mail.ru

Blink 182 - Anthem pt 21 - таба, видео

Печатать
Просмотров: 93


intro(clean)
-------------------------------------------------
-8--8---6--6--5--5-------------------------------
--5--5---5--5--5--5------X4----------------------
-------------------------------------------------
-------------------------------------------------
-------------------------------------------------
Intro 2 (distortion)
-------------------------------------------------
-------------------------------------------------
-------------------------------------------------
---03---2---03----2---03----2----0----0----------
-33---33--33----33--33----33--33---33---------X4-
-------------------------------------------------

Intro 3 (Distortion)
-------------------------------------------------
-------------------------------------------------
-999---101010---999---555---777---9---10--5------
--------------------------------X3---------------
-777---8--8-8---777---333---555---7----8--3------
-------------------------------------------------


Verse (mostly bass, use distortion)

-------------------------------------------------
-------------------------------------------------
-------------------------------------------------
-------------------------------------------------
-55--Palm mute3333333333333333-00000000---------
-33-------------------------------------11111111-

Chorus(distortion)

-------------------------------------------------
-------------------------------------------------
-----------5555----------------------------------
-2222-3333-5555-5555-----------------------------
-2222-3333-3333-5555-----------------------------
-0000-1111------3333-----------------------------

Добавлено: 19.08.2013
Другие материалы по этой песне:
  • Аккорды и текст

Страница создана 19.08.2013
http://primanota.ru/blink-182/anthem-pt-21-chords.htm
Привет, Гость.
Предлагаем пройти революционный курс по гитаре.
Подарок от PrimaNota.Ru, забирай!