PrimaNota.ru - самый крупный в мире бесплатный архив песенных текстов, аккордов, табулатур и нот


Black Veil Brides - Perect Weapon - таба, видео

Регистрация Запомнить меня
Войти через:  Facebook Google Twitter Vk Yandex Mail.ru

Black Veil Brides - Perect Weapon - таба, видео

Печатать
Просмотров: 385
Intro x3 (Lead)
---------------------------------------------------------------------------|
---------------------------------------------------------------------------|
---------------------------------------------------------------------------|
-------7--------------------2----------------------7-----------------------|
-------------3h5------------------5-5-5p3----------------3h5---------------|
--0-0-----0-------0--3~--0-----0-------------0-0------0--------0--3~--0----|
  p p     p       p      p      p             p p      p        p      p


---------------------------------------------------------------------------|
---------------------------------------------------------------------------|
---2------5-5-5-5---------7--------------------7-----10-10-10p8------------|
----------3-3-3-3---------------3/5----------------------------------------|
------0--------------8-8-----8--------0-8~--8-----8------------------------|
      p              p p     p         p     p     p


---------------------------------------------------------------------------|
---------------------------------------------------------------------------|
---------------------------------------------------------------------------|
-------7-----------------------/8-7----------------------------------------|
-------------3/5-----------------------------------------------------------|
--8-8-----8-------8-8-7-5-3-5----------------------------------------------|
  p p     p       p p p p p p


Intro x3 (Harmony)
---------------------------------------------------------------------------|
---------------------------------------------------------------------------|
---------------------------------3-3-3p2-----------------------------------|
---------------------------2-----------------------------------------2-----|
-------8----7h8---------------------------------8-----7h8------------------|
--0-0-----0------0--3~--0-----0------------0-0-----0-------0--3~--0-----0--|
  p p     p      p      p      p            p p     p       p      p      p


---------------------------------------------------------------------------|
---------------------------------------------------------------------------|
---------------------------------------------------------------------------|
--5-5-5-5------------------------------------------------------------------|
--3-3-3-3--------8-----7h8-----------8-----10-10-10p8------8-----7h8-------|
------------8-8-----8-------0-8~--8-----8--------------8-8----8------------|
            p p     p        p     p     p              p p    p


---------------------------------------------------------------------------|
---------------------------------------------------------------------------|
---------------------------------------------------------------------------|
---------------------------------------------------------------------------|
---------------/10-8-------------------------------------------------------|
--0-0-7-5-3-5--------------------------------------------------------------|
  p p p p p p


Into (Rhythm)
---------------------------------------------------------------------------|
---------------------------------------------------------------------------|
---------------------------------------------------------------------------|
--0~--------------------------8~-------------------------------------------|
--0~--------------------------8~-------------------------------------------|
--0~--------------------------8~-------------------------------------------|


Verse (Lead)
---------------------------------------------------------------------------|
---------------------------------------------------------------------------|
---------------------------------------------------------------------------|
--0~----3~----10~----10~----8~---------------------------------------------|
--0~----3~----8~-----------------10~---------------------------------------|
--0~----3~----7~-----------------------------------------------------------|



---------------------------------------------------------------------------|
---------------------------------------------------------------------------|
---------------------------------------------------------------------------|
----------------0---------7p5-----5---3-------------3----4---5---6-6-------|
----------------0--------------7------3-------------3----------------------|
--0--0-0--000-0-0--0-0-0--------------3--3-3--333-3-3--3---3---3-----------|
     p p  ppp p    p p p                  p p  ppp p    p   p   p



---------------------------------------------------------------------------|
---------------------------------------------------------------------------|
---------------------------------------------------------------------------|
--8-------------8-------------------7---------------7h8p7----7-8p7-8/10----|
--8-------------8--10p0---12p10/8---7---------------------10---------------|
--8--8-8--888-8-8-------------------7--7-7-777-7-7-------------------------|
     p p  ppp p                         p p ppp p p

Verse (Harmony)
---------------------------------------------------------------------------|
---------------------------------------------------------------------------|
---------------------------------------------------------------------------|
--0~----3~----10~----7~----5~----------------------------------------------|
--0~----3~----8~----------------7~-----------------------------------------|
--0~----3~----7~-----------------------------------------------------------|



---------------------------------------------------------------------------|
---------------------------------------------------------------------------|
---------------------------------------------------------------------------|
--------------0-----------3p2-----2---3-------------3----0---2---3-3-------|
--------------0----------------3------3-------------3----------------------|
--0--0-0--000-0-0--0-0-0--------------3--3-3--333-3-3--3---3---3-----------|
     p p  ppp   p  p p p                  p p  ppp p    p   p   p


---------------------------------------------------------------------------|
---------------------------------------------------------------------------|
---------------------------------------------------------------------------|
--8-------------8-----------------7----------------------------------------|
--8-------------8--7----8p7/5p7---7---------------8h10p8-7-8-10p8-10/12----|
--8--8-8--888-8-8----0------------7--7-7-777-7-7---------------------------|
     p p  ppp p      p                p p ppp p p


Pre-Chorus x2 (Lead)
---------------------------------------------------------------------------|
---------------------------------------------------------------------------|
----------------------------7p5p3------------------------------------------|
--3-3-3-3-3-3-3-3--5-5-5-5---------7p5p3-------7p0--5/2--2/3---------------|
--1-1-1-1-1-1-1-1--3-3-3-3----------------000-----------------0-000-0------|
------------------------------------------000-----------------0-000-0------|
                                           ppp                 p ppp p


---------------------------------------------------------------------------|
---------------------------------------------------------------------------|
-----------7-9-7-9*^-5-7---------------------------------------------------|
--7p5/2/3------------------------------------------------------------------|
---------------------------------------------------------------------------|
---------------------------------------------------------------------------|


Pre-Chorus x2 (Harmony)
---------------------------------------------------------------------------|
---------------------------------6p5p3-------------------------------------|
----------------------------------------5p3p2------------------------------|
-------3p0--2p0-----0-------------------------------3p0--2p0----0----------|
--111------------3-----3-333-3-----------------000------------3------------|
-----------------------------------------------000-------------------------|
  ppp            p     p ppp  p                 ppp


---------------------------------------------------------------------------|
--------------------------------5-7-5-7*^-4-5------------------------------|
---------------------------------------------------------------------------|
-----------3p0---0---3-3---------------------------------------------------|
--0-000-0------3-----1-1--3--5---------------------------------------------|
--0-000-0-----------------3--5---------------------------------------------|
  p ppp p


Chorus (Both)
---------------------------------------------------------------------------|
---------------------------------------------------------------------------|
-10-10-10-10-10-10---------------------------------------------------------|
-10-10-10-10-10-10---10-10-10-10-10------0--10/----------------------------|
--8-8-8-8-8-8-8-8----8-8-8-8-8-8-8-------0--10/----------------------------|
--8-8-8-8-8-8-8-8----7-7-7-7-7-7-7-------0--10/----------------------------|


Chorus (Lead)
---------------------------------------------------------------------------|
---------------------------------------------------------------------------|
---------------------------------------------------------------------------|
-------7--------------------2----------------------7-----------------------|
-------------3h5------------------5-5-5p3----------------3h5---------------|
--0-0-----0-------0--3~--0-----0-------------0-0------0--------0--3~--0----|
  p p     p       p      p      p             p p      p        p      p


---------------------------------------------------------------------------|
---------------------------------------------------------------------------|
---2------5-5-5-5----------------------------------------------------------|
----------3-3-3-3----------------------------------------------------------|
------0--------------------------------------------------------------------|
      p


Chorus (Harmony)
---------------------------------------------------------------------------|
---------------------------------------------------------------------------|
---------------------------------3-3-3p2-----------------------------------|
---------------------------2-----------------------------------------2-----|
-------8----7h8---------------------------------8-----7h8------------------|
--0-0-----0------0--3~--0-----0------------0-0-----0-------0--3~--0-----0--|
  p p     p      p      p      p            p p     p       p      p      p


---------------------------------------------------------------------------|
---------------------------------------------------------------------------|
---------------------------------------------------------------------------|
--5-5-5-5------------------------------------------------------------------|
--3-3-3-3------------------------------------------------------------------|
---------------------------------------------------------------------------|



Breakdown (Lead)
---------------------------------------------------------------------------|
---------------------------------------------------------------------------|
----------------------------------7--------7---7-10-9----------9----9/12---|
--------------------------------5---7-7-7----7--------11-11-11---11--------|
--5-------5---5-8-7-------7---7--------------------------------------------|
----0-0-0---0-------7-7-7---7----------------------------------------------|
    p p p   p


---------------------------------------------------------------------------|
---------------------------------------------------------------------------|
--10101010101010777777766666-------7-------7---7-10-9----------9----9-12---|
----------------------------77777----7-7-7---7--------11-11-11---11--------|
---------------------------------------------------------------------------|
---------------------------------------------------------------------------|



--13----------13----13-17-15----------15----15-18--------------------------|
-----15-15-15----15----------17-17-17----17--------------------------------|
---------------------------------------------------------------------------|
---------------------------------------------------------------------------|
---------------------------------------------------0-7-0-3-0-5-0-2---------|
---------------------------------------------------0-7-0-3-0-5-0-2---------|
                                                    p   p   p   p


--17h18p17-15----------15--------------------------------------------------|
--------------18-17-18----17-----------------------------------------------|
---------------------------------------------------------------------------|
---------------------------------------------------------------------------|
---------------------------------------------------------------------------|
---------------------------------------------------------------------------|


Breakdown (Harmony)
---------------------------------------------------------------------------|
---------------------------------------------------------------------------|
---------------------------------------------------------------------------|
---------------------------------------------------------------------------|
--5-------5---5-8-7-------7---7-10-88888888888555555555444444--------------|
----0-0-0---0-------7-7-7---7--------------------------------777777--------|




---------------------------------------------------------------------------|
---------------------------------------------------------------------------|
---------------------------------------------------------------------------|
-------------------------------------------------7-5-------5---7-8---------|
--5-------5---5-8-7-------7---7-10-8-5-5-5-8-5-8-----7-7-7---5-------------|
----0-0-0---0-------7-7-7---7----------------------------------------------|




-----------------------13-12----------12----12-15--------------------------|
--15----------15----15-------14-14-14----14--------------------------------|
-----14-14-14----14--------------------------------------------------------|
-----------------------------------------------------0-7-0-3-0-5-0-2-------|
-----------------------------------------------------0-7-0-3-0-5-0-2-------|
                                                      p   p   p   p


--13h15p13-12----------12--------------------------------------------------|
--------------15-14-15----14-----------------------------------------------|
---------------------------------------------------------------------------|
---------------------------------------------------------------------------|
---------------------------------------------------------------------------|
---------------------------------------------------------------------------|


Solo
--15p13----13--------------------------------------------------------------|
--------15----15-13h15p13----13--------------------------------------------|
--------------------------14----14-12h14p12----12--------------------------|
--------------------------------------------15----15-12h15p12----12--------|
--------------------------------------------------------------15----15-12--|
---------------------------------------------------------------------------|



---------------------------------------------------------------------------|
-------------------------------------10------------------------------------|
--------------------10----10h12p1012----12-10h12p10----10*-----------------|
--------10h12p10h12----12---------------------------12---------------------|
--10h12--------------------------------------------------------------------|
---------------------------------------------------------------------------|



--13p10p8h10h13p10h13p10p8h1013p10h13p10p8h10h13p10p8h10h13p10p8h10h13p----|
---------------------------------------------------------------------------|
---------------------------------------------------------------------------|
---------------------------------------------------------------------------|
---------------------------------------------------------------------------|
---------------------------------------------------------------------------|



--10p8h10h13p10p8h10h13p10h13p10p8h10h13p10h13p10p8------------------------|
---------------------------------------------------------------------------|
---------------------------------------------------------------------------|
---------------------------------------------------------------------------|
---------------------------------------------------------------------------|
---------------------------------------------------------------------------|



--121212121213131313151515151212121213131313131515151515---15^15^15^p12----|
---------------------------------------------------------------------------|
---------------------------------------------------------------------------|
---------------------------------------------------------------------------|
---------------------------------------------------------------------------|
---------------------------------------------------------------------------|



-------13h15p13h15p13----13------------------------------------------------|
--15------------------17----17-15h17p15-13h15p13----13---------------------|
-------------------------------------------------15----15-14h15p14-13h14p--|
---------------------------------------------------------------------------|
---------------------------------------------------------------------------|
---------------------------------------------------------------------------|



---------------------------------------------------------------------------|
---------------------------------------------------------------------------|
--13----13-------------------/12-12-12-12~---------------------------------|
-----15----15-14h15p14-12-12-----------------------------------------------|
---------------------------------------------------------------------------|
---------------------------------------------------------------------------|



------------------------------------------------------10-------10----------|
---------------------------------------------------------10-12-12^---------|
--7h9p7h9p7h9p7-9h10p9h10p9h10p9-10h12p10h12p10h12p10----------------------|
---------------------------------------------------------------------------|
---------------------------------------------------------------------------|
---------------------------------------------------------------------------|


Rhythm
---------------------------------------------------------------------------|
---------------------------------------------------------------------------|
---------------------------------------------------------------------------|
-------7--------------------2----------------------7-----------------------|
-------------3h5------------------5-5-5p3----------------3h5---------------|
--0-0-----0-------0--3~--0-----0-------------0-0------0--------0--3~--0----|
  p p     p       p      p      p             p p      p        p      p


---------------------------------------------------------------------------|
---------------------------------------------------------------------------|
---2------5-5-5-5---------7--------------------7-----10-10-10p8------------|
----------3-3-3-3---------------3/5----------------------------------------|
------0--------------8-8-----8--------0-8~--8-----8------------------------|
      p              p p     p         p     p     p


---------------------------------------------------------------------------|
---------------------------------------------------------------------------|
---------------------------------------------------------------------------|
-------7-----------------------/8-7----------------------------------------|
-------------3/5-----------------------------------------------------------|
--8-8-----8-------8-8-7-5-3-5----------------------------------------------|
  p p     p       p p p p p p
Добавлено: 08.04.2012
Другие материалы по этой песне:
  • Аккорды и текст

Страница создана 08.04.2012
http://primanota.ru/black-veil-brides/perect-weapon-chords.htm
Привет, Гость.
Предлагаем пройти революционный курс по гитаре.
Подарок от PrimaNota.Ru, забирай!