PrimaNota.ru - самый крупный в мире бесплатный архив песенных текстов, аккордов, табулатур и нот


Black Veil Brides - Goodbye Agony - таба, бас-таба, видео

Регистрация Запомнить меня
Войти через:  Facebook Google Twitter Vk Yandex Mail.ru

Black Veil Brides - Goodbye Agony - таба, бас-таба, видео

Печатать
Просмотров: 558
Авторы: Scott Stevens, Andy Biersack, Christian "CC" Coma, Jeremy Ferguson, Jake Pitts

-------------------------------------------------------------------------------
                             SONG NAME - Band Name
-------------------------------------------------------------------------------
Tabbed by:
E-mail:

Tuning:

e|---------------------------------------------------------------------------|
B|---------------------------------------------------------------------------|
G|---------------------------------------------------------------------------|
D|---------4--4--4--44-------------------------------------------------------|
A|--00--0--2--2--2--22--0--0--0--00--5--5--5--5--2--2------------------------|
D|--00--0---------------0--0--0--00--5--5--5--5--2--2------------------------|
    **  *                                   
e|---------------------------------------------------------------------------|
B|---------------------------------------------------------------------------|
G|---------------------------------------------------------------------------|
D|---------4--4--4--4/6--6--6--6--66----------------7-7---6-6-4--------------|
A|--00--0--2--2--2--2/4--4--4--4--44----------------5-5---4-4-2--------------|
E|--00--0-----------------------------5--5--5--5--0----0---------------------|
    **  *                                         *    *     



************************************

| /   slide up
| \   slide down
| h   hammer-on
| p   pull-off
| ~   vibrato
| +   harmonic
| x   Mute note
| b   Bend
| pb  Pre-bend
| br  Bend release
| pbr Pre-bend release
| brb Bend release bend

************************************
Добавлено: 23.09.2015
Другие материалы по этой песне:

Страница создана 04.09.2015
http://primanota.ru/black-veil-brides/goodbye-agony-chords.htm
Привет, Гость.
Предлагаем пройти революционный курс по гитаре.
Подарок от PrimaNota.Ru, забирай!