PrimaNota.ru - самый крупный в мире бесплатный архив песенных текстов, аккордов, табулатур и нот


Black Veil Brides - Fear Transmission 1 Stay Close - таба, видео

Регистрация Запомнить меня
Войти через:  Facebook Google Twitter Vk Yandex Mail.ru

Black Veil Brides - Fear Transmission 1 Stay Close - таба, видео

Печатать
Просмотров: 285
-------------------------------------------------------------------------------
                        F.E.A.R Transmission 1: Stay Close
-------------------------------------------------------------------------------

Tuning: Drop C#


                  ****************************************
                           LEAD VIOLIN / (GUITAR)
                  ****************************************

D#|---9~---------|-----9--11-12~|---9--11--12~-|-9-11-12-11-9-11-12-11-|
A#|--------------|--9-----------|--------------|-----------------------|
F#|--------------|--------------|--------------|-----------------------|
C#|--------------|--------------|--------------|-----------------------|
G#|--------------|--------------|--------------|-----------------------|
C#|--------------|--------------|--------------|-----------------------|

D#|---9-11-12-11-12-16---|-21~----------|-16-21-23-24--|-----21-16-13-|
A#|----------------------|--------------|--------------|--------------|
F#|----------------------|--------------|--------------|--------------|
C#|----------------------|--------------|--------------|--------------|
G#|----------------------|--------------|--------------|--------------|
C#|----------------------|--------------|--------------|--------------|

D#|---13-15-16---|------13------|-15-13-15-16--|--13-15-16-15-13-15-16-15-|
A#|--------------|--------------|--------------|--------------------------|
F#|--------------|--------------|--------------|--------------------------|
C#|--------------|--------------|--------------|--------------------------|
G#|--------------|--------------|--------------|--------------------------|
C#|--------------|--------------|--------------|--------------------------|

D#|--13-15-16-15-16-20---|------13------|--16--16--18--|--20-16-20-24--|
A#|----------------------|--------------|--------------|---------------|
F#|----------------------|--------------|--------------|---------------|
C#|----------------------|--------------|--------------|---------------|
G#|----------------------|--------------|--------------|---------------|
C#|----------------------|--------------|--------------|---------------|



                  ****************************************
                         HARMONY VIOLIN 1 / (GUITAR)
                  ****************************************

D#|---9~---------|-----9--11-12~|---9--11--12~-|-9-11-12-11-9-11-12-11-|
A#|--------------|--9-----------|--------------|-----------------------|
F#|--------------|--------------|--------------|-----------------------|
C#|--------------|--------------|--------------|-----------------------|
G#|--------------|--------------|--------------|-----------------------|
C#|--------------|--------------|--------------|-----------------------|

D#|---9-11-12-11-12-16---|----------------------------------8-9-------|
A#|----------------------|-----------7--9---9-7--------7--9-----9-----|
F#|----------------------|-----6-8-9------8------9-6-9----------------|
C#|----------------------|--------------------------------------------|
G#|----------------------|--------------------------------------------|
C#|----------------------|--------------------------------------------|

D#|--------------|--------------|--------------|--------------------------|
A#|--------------|--------------|--------------|--------------------------|
F#|--------------|--------------|--------------|--------------------------|
C#|--------------|--------------|--------------|--------------------------|
G#|--------------|--------------|--------------|--------------------------|
C#|--------------|--------------|--------------|--------------------------|

D#|----------------------|-------13-15-------------15--16-----16-15----|
A#|----------------------|----13---------18-13-18---------18-----------|
F#|----------------------|---------------------------------------------|
C#|----------------------|---------------------------------------------|
G#|----------------------|---------------------------------------------|
C#|----------------------|---------------------------------------------|



                  ****************************************
                               CELLO / (BASS)
                  ****************************************


F#|--------------|--------------|--------------|-----------------------|
C#|--------------|----2---------|--------------|-----------------------|
G#|----4---------|--------------|----0---------|-----------------------|
C#|--------------|--------------|--------------|-----4---------6-------|

F#|--------------|--------------|--------------|-----------------------|
C#|--------------|----2---------|--------------|-----------------------|
G#|----4---------|--------------|----0---------|-----------------------|
C#|--------------|--------------|--------------|-----4---------6-------|

F#|----------------------|--------------|--------------|--------------|
C#|----3----------3--5---|----6-------4-|--------------|--------------|
G#|----------------------|--------------|---1--3-------|--------------|
C#|----------------------|--------------|--------------|--------------|

F#|----------------------|--------------|--------------|--------------|
C#|----------------------|---3----------|--------------|--------------|
G#|----------------------|--------------|--------------|----------3---|
C#|----------------------|--------------|--------------|--------------|



                  ****************************************
                         HARMONY VIOLIN 2 / (GUITAR)
                  ****************************************

   Starts at 00:11

D#|--21~---------|-----9--11-12~|---9--11--12~-|-9-11-12-11-9-11-12-11-|
A#|--------------|--9-----------|--------------|-----------------------|
F#|--------------|--------------|--------------|-----------------------|
C#|--------------|--------------|--------------|-----------------------|
G#|--------------|--------------|--------------|-----------------------|
C#|--------------|--------------|--------------|-----------------------|

D#|---9-11-12------------|-----------6--8---8-6----6-9-8--13-8-------|
A#|------------10-9-7----|--6-7-8--9------9------9--------------9-8--|
F#|----------------------|-------------------------------------------|
C#|----------------------|-------------------------------------------|
G#|----------------------|-------------------------------------------|
C#|----------------------|-------------------------------------------|


********************************************************************************
Добавлено: 21.09.2013
Другие материалы по этой песне:

Страница создана 21.07.2013
http://primanota.ru/black-veil-brides/fear-transmission-1-stay-close-chords.htm
Привет, Гость.
Предлагаем пройти революционный курс по гитаре.
Подарок от PrimaNota.Ru, забирай!