PrimaNota.ru - самый крупный в мире бесплатный архив песенных текстов, аккордов, табулатур и нот


Black Veil Brides - THE LEGACY - текст песни, таба, бас-таба, видео

Регистрация Запомнить меня
Войти через:  Facebook Google Twitter Vk Yandex Mail.ru

Black Veil Brides - THE LEGACY - текст песни, таба, бас-таба, видео

Печатать
Просмотров: 1266
Авторы: Luke Walker, Ashley Purdy, Andy Biersack, Jake Pitts

                        ------------------------------------------
                             Black veil Brides - The legacy
                        ------------------------------------------

Tabbed by Jaames'
Tunning DropC#

Intro:x2
|----------------------------------------------------------------------------|
|----------------------------------------------------------------------------|
|----------------------------------------------------------------------------|
|----------------------------------------------------------------------------|
|--000-000-000--2p02p0-5p05h7h8p5-2p02p0-5p0-7-88888888-2po2p0-5p05h7h8p5-2--|p
|--000-000-000--2p02p0-5p05h7h8p5-2p02p0-5p0-7-88888888-2p02p0-5p05h7h8p5-2--|p

|--------------------------------------------------------------------------|
|--------------------------------------------------------------------------|
|--------------------------------------------------------------------------|
|---------------8x---------------------------------------------------------|
|02p0-5p0-7-88888x000-000-000----------------------------------------------|
|02p0-5p0-7-88888x000-000-000----------------------------------------------|

Pre-verse:Struming
|--------------------------------------------------------------------------|
|--------------------------------------------------------------------------|
|--------------------------------------------------------------------------|
|88888888888888-1010101010101010-------------------------------------------|
|88888888888888-7 7 7 7 7 7 7 7-0-12\--------------------------------------|
|88888888888888-7 7 7 7 7 7 7 7-0-12\--------------------------------------|

Verse:both guitars
|--------------------------------------------------------------------------|
|--------------------------------------------------------------------------|
|--------------------------------------------------------------------------|
|--------------------------------------------------------------------------|
|5h8p5-000-0-0-0-0-0-0-5h8p5-000-3h7p3000-0-0-0-0-0-0-5h8p5-000-7h10p7-000-|
|------000-0-0-0-0-0-0-------000------000-0-0-0-0-0-0------------------000-|

|--------------------------------------------------------------------------|
|--------------------------------------------------------------------------|
|--------------------------------------------------------------------------|
|--------------------------------------------------------------------------|
|0-0-0-0-0-0-5h8p5-000-3h7p3-----------------------------------------------|
|0-0-0-0-0-0-------000------8888777755533----------------------------------|


Verse:guitar 2 repeats above but guitar 1 does this to make harmony.
|---------------------------------------------------------------------------|
|---------------------------------------------------------------------------|
|---------------------------------------------------------------------------|
|---------------------------------------------------------------------------|
|8h12p8-000-0-0-0-0-0-0-8h12p8-000-7h10p7-000-0-0-0-0-0-0-8h12p8-000-10h13p-|
|-------000-0-0-0-0-0-0--------000--------000-0-0-0-0-0-0--------000--------|

|--------------------------------------------------------------------------|
|--------------------------------------------------------------------------|
|--------------------------------------------------------------------------|
|--------------------------------------------------------------------------|
|10-000-0-0-0-0-0-0-8h12p8-000-7h10p7--------------------------------------|
|---000-0-0-0-0-0-0--------000---------------------------------------------|

Pre Chorus:Guitar 1
|--------------------------------------------------------------------------|
|--------------------------------------------------------------------------|
|--------------------------------------------------------------------------|
|----------------------------------8--10-8---10----------------------------|
|12121212121010101010107777778888888------10-10-13-12-13-10----------------|
|----------------------------------888-------10----------------------------|

Pre Chorus:Guitar 2
|--------------------------------------------------------------------------|
|--------------------------------------------------------------------------|
|--------------------------------------------------------------------------|
|----------------------------8--10-8---10----------------------------------|
|10101010108888885555557777778------10-10-10-8-10-7------------------------|
|----------------------------888-------10----------------------------------|

Chorus:both guitars x2
|--------------------------------------------------------------------------|
|--------------------------------------------------------------------------|
|--------------------------------------------------------------------------|
|00000005555555588888888101010101010---------------------------------------|
|00000005555555588888888101010101010---------------------------------------|
|00000005555555588888888101010101010---------------------------------------|

Post chorus:Guitar 1
|--------------------------------------------------------------------------|
|--------------------------------------------------------------------------|
|--------------------------------------------------------------------------|
|1p01p0-------1p01p0----1p01h2p1----1p01p02h3p21p0-6-----------------------|
|1p01p0-------1p01p0----1p01h2p1----1p01p02h3p21p0-6-----------------------|
|--------------------------------------------------6-----------------------|

Do:
Verse
Pre Chorus
Chorus

Bridge:Guitar 1
|--------------------------------------------------------------------------|
|--------------------------------------------------------------------------|
|------------------------------------------------------7h10-7h10-7h10-7h10-|
|---------------------------7h10-7h10-7h10-7h10-7h10-----------------------|
|--5h8-5h8-5h8-5h8-5h8-5h8-------------------------------------------------|
|00-----------------------00-------------------------00--------------------|

Bridge:Guitar 2the 8h12 is played with 7h10 above to make harmony.
|---------------------------------------------------------------------------|
|---------------------------------------------------------------------------|
|---------------------------------------------------------------------------|
|---------------------------------------------------------------------------|
|8h12-8h12-8h12-8h12--------------------------------------------------------|
|-------------------7h11-7h11-7h11-7h11-7h11-7h8-7h8-7h8-7h8-7h8-5h7-5h7-5--|h

|--------------------------------------------------------------------------|
|--------------------------------------------------------------------------|
|--------------------------------------------------------------------------|
|--------------------------------------------------------------------------|
|--------------------------------------------------------------------------|
|7-5h7-5h7-0h1h0-0h1p0-0h1p0-0h1p0-0h1p0-----------------------------------|

Breakdown:Both guitars
|----------------------------------------------------------------------------|
|----------------------------------------------------------------------------|
|-------------------------------------------------------------7h10-7h10-7h10-|
|------------------------0---------------------7h10-7h10-7h10----------------|
|0000-000---0000-000-0-0-0-5h8-5h8-5h8-5h8-5h8-------------------------------|
|0000-000---0000-000-0-0-0---------------------------------------------------|

|1p01p0-2h3p2-1p01p06--| then intro during solo
|1p01p0-2h3p2-1p01p06--|
|-------------------6--|

this is my very first tab so cut me some slack please.
jinxx is madd as
Добавлено: 20.04.2012
Другие материалы по этой песне:

Страница создана 14.04.2012
http://primanota.ru/black-veil-brides/the-legacy-chords.htm
Привет, Гость.
Предлагаем пройти революционный курс по гитаре.
Подарок от PrimaNota.Ru, забирай!