PrimaNota.ru - самый крупный в мире бесплатный архив песенных текстов, аккордов, табулатур и нот


Black Veil Brides - Overture - таба, видео

Регистрация Запомнить меня
Войти через:  Facebook Google Twitter Vk Yandex Mail.ru

Black Veil Brides - Overture - таба, видео

Печатать
Просмотров: 325
So this is my first tab and I'm not sure if this is right or not but I'm just a beginner so I don't have much 
experience.
Anyways...... I hope you enjoy it :)




e|-1-0------1-0------1-0---------------------------------------|
B|-----3--------3--------3---------------0------------0--------|
G|-------2--------2--------2-----------2----2-------2---2------|
D|----------------------------3-2-0--0---------3--3-------3----|
A|-------------------------------------------------------------|
E|-------------------------------------------------------------|


e|---------------------5-7-5-----5-7-5----------5-3------------|
B|---------------------------6~--------6-3--3-6-----6-6--------|
G|-------2----------2------------------------------------------|
D|-3-0-3---5-3--3-5--------------------------------------------|
A|-------------------------------------------------------------|
E|-------------------------------------------------------------|


e|-3~-5-3-5-7-8---7-5-7-5---10--10-8-5-5~-3-5--3---3-5-3-5-7-8-|
B|------------------------3----------------------6-------------|
G|-------------------------------------------------------------|
D|-------------------------------------------------------------|
A|-------------------------------------------------------------|
E|-------------------------------------------------------------|


e|-7-5-7-5---10-10~-8-5-5~-3-5--3-1-3-5---5--5-7-5-5--5-7-5-5--|
B|---------3----------------------------3----------------------|
G|-------------------------------------------------------------|
D|-------------------------------------------------------------|
A|-------------------------------------------------------------|
E|-------------------------------------------------------------|


e|-5-7-5-5--5-7-5-5--5-7-3-5--3---3-5---5--5-7-5-5--5-7-5-5----|
B|------------------------------6-----3------------------------|
G|-------------------------------------------------------------|
D|-------------------------------------------------------------|
A|-------------------------------------------------------------|
E|-------------------------------------------------------------|

e|-5-7-3-5--3---3-5-5-5--5---3-5------3-5-7-5--3---3~----0---0-|
B|------------6------------6------3-6------------6-----3---6---|
G|-------------------------------------------------------------|
D|-------------------------------------------------------------|
A|-------------------------------------------------------------|
E|-------------------------------------------------------------|


e|-0---------------------------8-8-8-8-7----8-8-8-8-7---3------|
B|---3-1--------0------------------------6------------6--------|
G|------------2---2--------------------------------------------|
D|--------3-5-------5--3~-5-0----------------------------------|
A|-------------------------------------------------------------| 
E|-------------------------------------------------------------|




e|-5-7-5-3---3--3-3~-5--5-5-5---3--5---8-8--8~-5-7-------------|
B|---------6------------------6------6-------------------------|
G|-------------------------------------------------------------|
D|-------------------------------------------------------------|
A|-------------------------------------------------------------|
E|-------------------------------------------------------------|

e|-7-5-3---0-6--------------0----------------0-----------------|
B|-------3----------------3---6------------3---6---------------|
G|-------------------------------------------------------------|
D|----------------0-2-3-2----------0-2-3-2---------------------|
A|-------------0----------------0----------------0-------------|
E|-------------------------------------------------------------|

e|-----------0--------9-10~-10---------------------------------|
B|---------3---6-3--6------------------------------------------|
G|-------2-----------------------------------------------------|
D|-0-2-3-------------------------------------------------------|
A|-------------------------------------------------------------|
E|-------------------------------------------------------------|




Добавлено: 06.07.2015
Другие материалы по этой песне:

Страница создана 05.09.2013
http://primanota.ru/black-veil-brides/overture-chords.htm
Привет, Гость.
Предлагаем пройти революционный курс по гитаре.
Подарок от PrimaNota.Ru, забирай!