PrimaNota.ru - самый крупный в мире бесплатный архив песенных текстов, аккордов, табулатур и нот


Black Veil Brides - Nobodys Hero - текст песни, таба, видео

Регистрация Запомнить меня
Войти через:  Facebook Google Twitter Vk Yandex Mail.ru

Black Veil Brides - Nobodys Hero - текст песни, таба, видео

Печатать
Просмотров: 695
NOBODYS HERO - BLACK VEIL BRIDES

Tabbed by: TIDE WILKINS

Tuning: DROP D TUNED DOWN A HALF STEP OR DROP C# (C#G#C#F#A#D#)

00:00
D#|-------------------------------12~-16-14-12-12h14r12----12-----|
A#|-------------------------12-14-----------------------14----16--|
F#|-/13~--11-13-15-11-13-15---------------------------------------|
C#|---------------------------------------------------------------|
G#|---------------------------------------------------------------|
C#|---------------------------------------------------------------|

D#|-16-12----12------------------------------|
A#|-------16----16-12-16-12----12-16-12------|
F#|-------------------------15---------------|
C#|------------------------------------------|
G#|------------------------------------------|
C#|------------------------------------------|

D#|-------------12-16-12---------------------|
A#|----------14----------14------------------|
F#|-------13----------------13---------------|
C#|----14----------------------14------------|
G#|-16----------------------------16/--------|
C#|------------------------------------------|

D#|--------------14-18-14----------14-19-19-14----------14-19~-|
A#|-----------16----------16----16-------------16----16--------|
F#|--------15----------------15-------------------15-----------|
C#|-----16-----------------------------------------------------|
G#|-/18--------------------------------------------------------|
C#|------------------------------------------------------------|


00:14
D#|------------------------------------------|
A#|------------------------------------------|
F#|------------------------------------------|
C#|--2-2-2-4-4-4-----------------------------|
G#|--2-2-2-4-4-4-----------------------------|
C#|--2-2-2-4-4-4--[PICK-SLIDE]---------------|

D#|----------------------------------------------|
A#|----------------------------------------------|
F#|----------------------------------------------|
C#|-6--------------------------6-----------------|
G#|-6-6-6-6-6-6-6-7----9-----7-6-6-6-6-6-6-6-6-6-|
C#|-6-6-6-6-6-6-6--6-6---6-6---6-6-6-6-6-6-6-6-6-|

D#|------------------------------------------|
A#|------------------------------------------|
F#|------------------------------------------|
C#|--2-2-2-4-4-4-----------------------------|
G#|--2-2-2-4-4-4-----------------------------|
C#|--2-2-2-4-4-4-----------------------------|

00:27
D#|-----------------------------------------6-------7-----------------|
A#|-----------------------------------9-8-6---9-8-6---9---------------|
F#|-------------------9-8-6-8-6-----8-------------------8-------------|
C#|---------6-8-9-6-8-----------9-8-----------------------9-6-8-9-6---|
G#|-7-6-7-9-----------------------------------------------------------|
C#|-------------------------------------------------------------------|

D#|-----------------------------------------6------------|
A#|-----------------------------------9-8-6---9-8-6------|
F#|-------------------9-8-6-8-6-----8--------------------|
C#|---------6-8-9-6-8-----------9-8----------------------|
G#|-7-6-7-9----------------------------------------------|
C#|------------------------------------------------------|

00:55
D#|-------------------------------12~-16-14-12-12h14r12----12-----|
A#|-------------------------12-14-----------------------14----16--|
F#|-/13~--11-13-15-11-13-15---------------------------------------|
C#|---------------------------------------------------------------|
G#|---------------------------------------------------------------|
C#|---------------------------------------------------------------|

D#|-16-12----12------------------------------|
A#|-------16----16-12-16-12----12-16-12------|
F#|-------------------------15---------------|
C#|------------------------------------------|
G#|------------------------------------------|
C#|------------------------------------------|

D#|-------------------12-14-16-12-14----12----11---------|
A#|-12-14-16-12-14-16----------------16----14----11-12~--|
F#|------------------------------------------------------|
C#|------------------------------------------------------|
G#|------------------------------------------------------|
C#|------------------------------------------------------|

This is about as far as I have gotten, I'm still working on the solo
and the bit before the solo wich is really annoying >.< anyway, hope
this tablature is helpful, it's a really fun song to play, and I'm 
hoping to see some covers on youtube soon! (don't forget to reference
this tab if you use it because I did this all by ear) this is all pretty
accurate but if anyone has found a mistake, please feel free to comment 
with a correction. and don't forget to rate this tab! cheers! 
Добавлено: 03.07.2013
Другие материалы по этой песне:
  • Аккорды и текст

Страница создана 03.07.2013
http://primanota.ru/black-veil-brides/nobodys-hero-chords.htm
Привет, Гость.
Предлагаем пройти революционный курс по гитаре.
Подарок от PrimaNota.Ru, забирай!