PrimaNota.ru - самый крупный в мире бесплатный архив песенных текстов, аккордов, табулатур и нот


Black Sabbath - Zeitgeist - аккорды и текст, таба, видео

Регистрация Запомнить меня
Войти через:  Facebook Google Twitter Vk Yandex Mail.ru

Black Sabbath - Zeitgeist - аккорды и текст, таба, видео

Печатать
Просмотров: 1815
Новый альбом группы 'Черный Кузнец' по культовому сериалу 'Сверхъестественное'!
Авторы: Geezer Butler, Ozzy Osbourne, Tony Iommi

Zeitgeist
Black Sabbath
I've to say thanks to one of the contributors of this page "andherembrace" cuz he did a
whole part, i just put
the chords where they went.
Tune down half step
Eb-Ab-Db-Gb-Bb-Eb
[Intro/Riff 1]                                                              Riff 2

                                                        D#||----------------------|--------------||
                                                        A#||----------------------|--------------||
                                                        F#||----------------------|--------------||
                                                        C#||--5----4----2---------|--------------||
                                                        G#||-----------------5----|--3----2------||
                                                        D#||----------------------|------------0-||

------0--0-------------------0--0---------------|
------0--0-------------------0--0---0-----------|
------2--2---2---------------2--2---2-----------|
------2--2---2------0-2------2--2---2-----------|
-0----0--0---0--0-3-----0--0-0--0---0-0-3--3~-0-|

[Verse I]
 D#                    F#/A#
Astral engines in reverse
 D#                        A#       D#   F#/A#   D#    A#
I'm falling through the universe again
 D#                     F#/A#
Down among a deadmen's vision
D#                        A#       D#   F#/A#   D#    A#
Faded dreams and nuclear fission spent

[Chorus]
G#5                                          Badd9
The strings of theory are holding up the race
G#5                           Badd9
The puppets falling to the ground
G#5                                          Badd9
The love I feel as I fly endlessly through space
 G#5                                   F# F D# C# B A# D# (riff 2)
Lost in time I wonder will my ship be found

[Riff 1]

[Verse II]

D#                    F#/A#
On this sinking ship I travel
D#                        A#       D#   F#/A#   D#    A#
Faster than the speed of light
D#                    F#/A#
Not so supernova burns
D#                        A#            D#   F#/A#   D#    A#
The black holes turn and fade from sight

[Chorus]
G#5                                          Badd9
The strings of theory hide in the human race
G#5                           Badd9
The answers buried underground
G#5                                          Badd9
The love I feel as I fly endlessly through space
G#5                                   F# F D# C# B A# D# (riff 2)
Lost in time, I wonder will my ship be found

[Last part]
C
And very soon
D
The Bomber's moon
C
Will show us light
             D
And as we crash
              C
We'll pray and kiss
              D
And say goodnight
       Em
Goodnight

[Guitar solo]

----------------------------------------------------|
------^---------------------------------------------|
-12-11-12--------------------------11--12-----------|
----------12/14----------------------------12--14---|
------------------------------------9-/10-----------|
---------------------------------0------------------|

-----------------------------------------------------------------|
-----------------------------------------------------------------|
/14--12----------------------------------------------------------|
--------14-12----14--12--12--/12~~---------------^---------------|
--------------14----------------------14-12-10-12-10-12-10-------|
-----------------------------------------------------------12----|
                   |   |   |


---------------------------------|
----------------)----------------|
------12-14---15-----------------|
---14------14-----14~------------|
-14------------------------------|
---------------------------------|
            *


-----------------------------------------------------------------------|
-----------------------------------------------------------------------|
14--11-----------------------------------------------------------------|
------12----14--12--12--12~---12---------------------------------------|
--------14-----------------14----14\12-10----12--12--14-12~---10-12----|
------------------------------------------12------------------------12-|
              |   |   |                        |   |   |

-15-12----14-12----------------------------------------------------------|
-------15-------15-12----12----------------------------------------------|
----------------------14----12\11-14-11----11----------------------------|
----------------------------------------12----14-12-14-12----------------|
----------------------------------------------------------14\12-10/12-14-|
-------------------------------------------------------------------------|

---------------------------------------------------------------|
---------------------------------------------------------------|
---------------------------------------------------------------|
------------9--10--9-10-9~~------------------------------------|
-9--10--12--------------------12-10-9~~~~~---------^-----------|
-------------------------------------------------12-10-12------|

------------------------------------------------------------------------|
------------------------------------------------------------------------|
---____----------------------------------------------------12-11--14-12-|
--/    \----------12-----------------------------7/9-12-14--------------|
-9-10-9----9--10-----9--10--12------------7-9-10------------------------|
--------12--------------------------------------------------------------|

--------------------------------__-------------------|
-------------------------------/  \------------------|
---------------------12--14--12-14-12-11-------------|
-12--14-----------------------------------14--12--14-|
---------14~-----------------------------------------|
-----------------------------------------------------|

-------------------------|
-------------------------|
-------------------------|
--------7-9--------------|
-7-9-10------5-7~--------|
-------------------------|


Добавлено: 09.02.2018
Другие материалы по этой песне:
  • Аккорды и текст

Страница создана 02.06.2013
http://primanota.ru/black-sabbath/zeitgeist-chords.htm
Привет, Гость.
Предлагаем пройти революционный курс по гитаре.
Подарок от PrimaNota.Ru, забирай!