PrimaNota.ru - самый крупный в мире бесплатный архив песенных текстов, аккордов, табулатур и нот


Black Sabbath - Nativity In Black - аккорды и текст, таба, бас-таба, видео

Регистрация Запомнить меня
Войти через:  Facebook Google Twitter Vk Yandex Mail.ru

Black Sabbath - Nativity In Black - аккорды и текст, таба, бас-таба, видео

Печатать
Просмотров: 302
Nativity In Black
Black Sabbath
G|--------------------------------------------------------------------------| X3
D|---------5-4--------------7--5--7--------------5--4----------------------5|
A|-7-7-5-7------7--7--5--7-----------7--7--5--7--------7--7--5--7------5-7--|
E|-----------------------------------------------------------------5-7------|
 
G|----------------------------------------------------------------|
D|-------7-9-7------------5-7-5------------3-5-3------------------|
A|--7--9-------9-7---5--7-------7-5---3--5-------5-3---2--2--2--2-|
E|----------------------------------------------------------------|

G|------------------------------------------------------------------------| X3
D|---------5-4------------7--5--7--------------5--4----------------------5|
A|-7-7-5-7-----7-7--5--7-----------7--7--5--7--------7--7--5--7------5-7--|
E|---------------------------------------------------------------5-7------|

G|-----------------------------------------------------------------------|
D|-----------------------------------------------------------------------|
A|--7>--7-5>--5-3>--3-2>--2-7>--7-5>--5-3>--3-2>--2-3>--3-2>--2-3>--3-2>-|
E|-----------------------------------------------------------------------|

G|------------------------------------------------------------------------| X3
D|---------5-4------------7--5--7--------------5--4----------------------5|
A|-7-7-5-7-----7-7--5--7-----------7--7--5--7--------7--7--5--7------5-7--|
E|---------------------------------------------------------------5-7------|

G|----------------------------------------------------------------| X3
D|-------7-9-7------------5-7-5------------3-5-3------------------|
A|--7--9-------9-7---5--7-------7-5---3--5-------5-3---2--2--2--2-|
E|----------------------------------------------------------------|

G|-----------------------|
D|-----------------------|
A|--7-7---5-5---3-3---2>-|
E|-----------------------|

G|----------------------------------------------------------------|
D|-------7-9-7------------5-7-5------------3-5-3------------------|
A|--7--9-------9-7---5--7-------7-5---3--5-------5-3---2--2--2--2-|
E|----------------------------------------------------------------|

G|------------------------------------------------------------------------| X3
D|---------5-4------------7--5--7--------------5--4----------------------5|
A|-7-7-5-7-----7-7--5--7-----------7--7--5--7--------7--7--5--7------5-7--|
E|---------------------------------------------------------------5-7------|

G|-----------------------------------------------------------------------|
D|-----------------------------------------------------------------------|
A|--7>--7-5>--5-3>--3-2>--2-7>--7-5>--5-3>--3-2>--2-3>--3-2>--2-3>--3-2>-|
E|-----------------------------------------------------------------------|

G|-------------------------------------------------------------------------| X3
D|--------------5--4--------------7-5-7---------5--4----------------------5|
A|--7--7--5--7--------7--7--5--7--------7-7-5-7-------7--7--5--7------5-7--|
E|----------------------------------------------------------------5-7------|

G|----------------------------------------------------------------| X5
D|-------7-9-7------------5-7-5------------3-5-3------------------|
A|--7--9-------9-7---5--7-------7-5---3--5-------5-3---2--2--2--2-|
E|----------------------------------------------------------------|

G|----------------|
D|----------------|
A|--7>----------7-|
E|----------------|
Добавлено: 13.01.2014
Другие материалы по этой песне:

Страница создана 20.03.2012
http://primanota.ru/black-sabbath/nativity-in-black-chords.htm
Привет, Гость.
Предлагаем пройти революционный курс по гитаре.
Подарок от PrimaNota.Ru, забирай!