PrimaNota.ru - самый крупный в мире бесплатный архив песенных текстов, аккордов, табулатур и нот


Black Sabbath - God Is Dead - текст песни, таба, бас-таба, видео

Регистрация Запомнить меня
Войти через:  Facebook Google Twitter Vk Yandex Mail.ru

Black Sabbath - God Is Dead - текст песни, таба, бас-таба, видео

Печатать
Просмотров: 1666
Авторы: Geezer Butler, Ozzy Osbourne, Tony Iommi

Tabbed by: tele.kom
E-mail: telee.kom@gmail.com
Tuning: Half-Step Down

Intro & Verse           Intro Variation         
e|-----------------|    e|------------------|
B|-----------------|    B|------------------|
G|-------0-------0-|    G|--------0-------0-|
D|-----9-------8---|    D|-----10-------8---|
A|---7-------7-----|    A|---7--------7-----|
E|-0-------0-------|    E|-0--------0-------|

Pre-Verse
e|-----------------------------------------------|
B|-----------------------------------------------|
G|-----------------------------------------------|
D|-7/9------7/9--11-12---7/9------7/9--11-12--7--|
A|-5/7------5/7--9--10---5/7------5/7--9--10--5--|
E|-----------------------------------------------|

e|------------------------------------------------|
B|------------------------------------------------|
G|------------------------------------------------|
D|-7/9------7/9--11-12---7/9------7/9-------------|
A|-5/7------5/7--9--10---5/7------5/7--8-7--5--2--|
E|-------------------------------------6-5--3--0--|

Chorus
e|---------------------------------------------------------------|
B|---------------------------------------------------------------|
G|-5----4--------------------------------------------------------|
D|-5----4--5-4-2------------------------2------------------------|
A|-3----2--5-4-2----7-6-5---------------2----7-6-5---------------|
E|---------3-2-0--0-------7-6v--0-6-7v--0--0-------7-6v--0-6-5v--| 2x

Verse 2 (w/Harmonizer)
e|-------------------------------------------|
B|-------------------------------------------|
G|-----0-------0-----------------------------|
D|---4---4---4---4-----7--7---7---7---11/12--|
A|-3-------3-------0-0-5--5-0-5-0-5-0--9/10--|
E|-------------------------------------------|
                   * *
e|----------------------------------------------|
B|----------------------------------------------|
G|-----0-------0--------------------------------|
D|---4---4---4---4------7--7---7--11/12/11-7-5--|
A|-3-------3-------0-0--5--5-0-5---9/10/10-5-3--|
E|----------------------------------------------|
                   * *
e|------------------------------------|
B|------------------------------------|
G|-----0-------0----------------------|
D|---4---4---4---4-----7--7-7-7-12/7--|
A|-3-------3-------0-0-5--5-5-5-10/5--|
E|------------------------------------|
                   * *
Verse 2 (w/Harmonizer)
e|---------------------------|
B|---------------------------|
G|---------------------------|
D|---------------------------|
A|--------7s10v--------7p6v--|
E|-0--0-0-------0--0-0-------|

Than Chorus & Pre-Verse 

Breakdown
e|--------------------------------------|
B|--------------------------------------|
G|--------------------------------------|
D|-------------5------------------------|
A|------7-5-7v---7-5----5---------------|
E|-0--0--------------7v---7-6-5v-0-3-5--| 6x

Breakdown Verse
e|------------------------------------------------------|
B|------------------------------------------------------|
G|------------------------------------------------------|
D|------------------------------------------------------|
A|-----5-----5------5-----7/8-----5-----5----5-----8/7--|
E|-0-0-3-0-0-3-0--0-3-0-0-5/6-0-0-3-0-0-3-0--0-0-0-6/5--|
   * *   * *   *  *   * *     * *   * *   *    * *

Pre-solo
e|-----------------------------|
B|-----------------------------|
G|-----------------------------|
D|-9--11/12---12/14-7-----7/9--|
A|-7---9/10---10/12-5---0-5/7--|
E|-----------------------------|

Solo
e|--------------------------------------------------|
B|--------------------------------------------------|
G|-----------19-16v--14b16-14b16-14b16-12-14-12-----|
D|-14--16-17------------------------------------14--|
A|--------------------------------------------------|
E|--------------------------------------------------|

e|--------------------------------------------------------------------------------|
B|-----15-15-------15-------15----------------------------------------------------|
G|--14b16----14b16----14b16----14b16-12-14-14b16-14-12--11h12p11-----------12-----|
D|---------------------------------------------------------------12-----12----14--|
A|-------------------------------------------------------------------14-----------|
E|--------------------------------------------------------------------------------|

Breakdown & Chorus
Добавлено: 03.08.2013
Другие материалы по этой песне:

Страница создана 21.06.2013
http://primanota.ru/black-sabbath/god-is-dead-chords.htm
Привет, Гость.
Предлагаем пройти революционный курс по гитаре.
Подарок от PrimaNota.Ru, забирай!