PrimaNota.ru - самый крупный в мире бесплатный архив песенных текстов, аккордов, табулатур и нот


Black Label Society - Mafia - таба, видео

Регистрация Запомнить меня
Войти через:  Facebook Google Twitter Vk Yandex Mail.ru

Black Label Society - Mafia - таба, видео

Печатать
Просмотров: 147
Black Label Society - Mafia (Album)

Track List
1. Fie It Up
2. What's In You
3. Suicide Messiah
4. Forever Down
5. In This River
6. You Must Be Blind
7. Death March
8. Dr. Octavia
9. Say What You Will
10. Too Tough To Die
11. Electric Hellfire
12. Spread Your Wings
13. Been A Long Time
14. Dirt On THe Grave
15. I Never Dreamed

____________________________________________________________________________________________________________________________________________
____________________________________________________________________________________________________________________________________________

1. Fire It Up

Tuning (Low to high) - D G C F A D

Intro (Gtr.1 W/Wah/Voice Box)
E-------------------------------------------------------------------------------|
B-------------------------------------------------------------------------------|
G-------------------------------------------------------------------------------|
D-------------------------------------------------------------------------------|
A-------------------------------------------------------------------------------|
E-3~~~~~~~~~~~~~~~~~~~~~~~~~~~~~~~~~~~~~~~~~~~~~~~~~~~~~~~~~~~~~~~~~~~~~~~~~~~~-
	*NOTE: Don't pick the note, just start to do a vibrato on it and move
		the wah pedal.

E--------------|---------------------------------------------------|
B--------------|---------------------------------------------------|
G--------------|---------------------------------------------------|Repeat This
D--------------|---------------------------------------------------|  Twice
A--------------|-3^(4)^3-3-1---3^(4)-3-1H3-1---3^(4)^3-1H3-1-------|
E-3~~~~~~~~~~~-|-------------3---------------3---------------1-3~~-|

Main Riff(Gtr.1 W/Wah/Voice Box)
E-------------------------------------------------------            -----------|
B-------------------------------------------------------            -----------|
G-5^(6)^5-5-3---5^(6)-5-3H5-3-----5^(6)^5-3H5-3---------Repeat Twice-0TR3------|
D-------------5---------------5~~---------------3-5~~~~- Then Play>>-----------|
A-------------------------------------------------------            -----------|
E-------------------------------------------------------            -----------|

Gtr.2 Distortion
E------------------------------------------------------------------|
B------------------------------------------------------------------|
G-----------------------------------------5-5-5-5------------------|Repeat Twice
D-5-5-5-5-5-5-5-5-5-5-5-5-5-5-5-5-3-3-3-3-5-5-5-5-5-5-5-5-5-5-5-5--|
A-5-5-5-5-5-5-5-5-5-5-5-5-5-5-5-5-3-3-3-3-3-3-3-3-5-5-5-5-5-5-5-5--|
E-3-3-3-3-3-3-3-3-3-3-3-3-3-3-3-3-1-1-1-1---------3-3-3-3-3-3-3-3--|
  PM---------------------------------------------------------------|


Verse (Gtr.1&2)
E------------------------------------------------------------------|
B------------------------------------------------------------------|
G-----------------------------------------5-5-5-5------------------|
D-5-5-5-5-5-5-5-5-5-5-5-5-5-5-5-5-3-3-3-3-5-5-5-5-5-5-5-5-5-5-5-5--|
A-5-5-5-5-5-5-5-5-5-5-5-5-5-5-5-5-3-3-3-3-3-3-3-3-5-5-5-5-5-5-5-5--|
E-3-3-3-3-3-3-3-3-3-3-3-3-3-3-3-3-1-1-1-1---------3-3-3-3-3-3-3-3--|
  PM---------------------------------------------------------------|

Verse Fills
1st E-------    2nd E ---------------------|
    B-------        B----------------------|
    G-0TR3--        G-5^(7)^5^^^^^---------|
    D-------        D----------------------|
    A-------        A----------------------|
    E-------        E----------------------|


The 'Keep Moving On' Section
Gtr.1
E------------------------------------------------------------|
B------------------------------3~~~~--6~~~---8~~-----11~~~~--|
G------------------------------5^~~~--8^~~~--10^~~~--13^~~~--|
D------------------------------------------------------------|
A------------------------------------------------------------|
E-8~~~~~~~-8~~~~~~~~-/21\\\\\--------------------------------|

Gtr.2
E-----------------------------------------------------------|
B------------------------------3~~~~--3~~~~--3~~~~--3~~~~---|
G------------------------------5^~~~--5^~~~--5^~~~--5^~~~---|
D-----------------------------------------------------------|
A-----------------------------------------------------------|
E-8~~~~~~~-8~~~~~~~~-/21\\\\\-------------------------------|

Pre - Solo

Gtr.1&2
E---------------------------------------------------------------------------|
B---------------------------------------------------------------------------|
G-3>>>>---------------------------------------------------------------------|
D-3>>>>--3>>>>--------------------------------------------------------------|
A-1>>>>--3>>>>--------------------------------------------------------------|
E--------1>>>>-1-3-3-3-1-3~~~-1-3-3-3-1-3~~~-1-3-3-3-1-3~~~-1-3-3-3-1-3~~~--|
               PM------| Ph   PM------| Ph   PM------| Ph   PM--------------| Ph

E----------------------------------|
B----------------------------------|
G-3>>>>-5>>-5-5-5-5-5-5--5P3P0TR*--|
D-3>>>>-5>>-5-5-5-5-5-5------------|
A-1>>>>-3>>-3-3-3-3-3-3------------|
E----------------------------------|
            PM---------------------|


Solo
E------------------15----------18^-18~~-15------------------------------------|
B---------------15----18-18^~~-------------18-15-18^~~~----15-^18-^18-^18-^18-|
G-17^~~~~~--17^---------------------------------------------------------------|
D-----------------------------------------------------------------------------|
A-----------------------------------------------------------------------------|
E-----------------------------------------------------------------------------|

E-------20^-18^^18-15---------18^^^^--15h17h18t20p18t20p18p17p15t20p18t20p18-|
B-18~~----------------18-18^-------------------------------------------------|
G----------------------------------------------------------------------------|
D----------------------------------------------------------------------------|
A----------------------------------------------------------------------------|
E----------------------------------------------------------------------------|

E-p17p15h17h18----------------------------------------------------------|
B--------------t20p18p17p15h18t20p18p15---------------------------------|
G---------------------------------------18~~~~~~--17^^17^^^^--17^^--17^-|
D-----------------------------------------------------------------------|
A-----------------------------------------------------------------------|
E-----------------------------------------------------------------------|

E-15--------------------------------------------------------15----------------|
B----15-18^~~~~~(18^)~~~~~~------15-18-----15-18-----15--------15-------------|
G----------------------------17^-------17^-------17^----17^-------17^^17-15~~-|
D-----------------------------------------------------------------------------|
A-----------------------------------------------------------------------------|
E-----------------------------------------------------------------------------|

E----------------------------------------------------------------------15-18-15-|
B-------------------------------------------------15-18-15-------15-18----------|
G-------------------------------------------15-17----------17-15----------------|
D-------------------------15----17----15-17-------------------------------------|
A-------13----15-13-15-17----17----17-------------------------------------------|
E-13-15----15-------------------------------------------------------------------|

E-18-15-------18-15-18-15-------18-20-18-15-------15-20-18-15-------------------|
B-------18-15-------------18-15-------------18-15-------------18-15-15-15-------|
G-------------------------------------------------------------------------18-17-|
D-------------------------------------------------------------------------------|
A-------------------------------------------------------------------------------|
E-------------------------------------------------------------------------------|

E-------------18^^^~~~--18----15-----------18^~~~--15-----15-------|
B--------------------------------18^~~~~~-------------18^----18^~~-|
G-15-17~~~~~-------------------------------------------------------|
D------------------------------------------------------------------|
A------------------------------------------------------------------|
E------------------------------------------------------------------|

E-20^^-20-20^^^20-20^^^20-20^^^20-20^^^^20-20^(22)^(22)^(22)^(22)^(22)^(22)^(21)-|
B--------------------------------------------------------------------------------|
G--------------------------------------------------------------------------------|
D--------------------------------------------------------------------------------|
A--------------------------------------------------------------------------------|
E--------------------------------------------------------------------------------|

E--^(21)^(20)-18----------------------------------------------------------|
B----------------20~~~~~~~~~~~~~~~~~~~~~~~~~~~~~\\\-----------------------|
G-------------------------------------------------------------------------|
D-------------------------------------------------------------------------|
A-------------------------------------------------------------------------|
E-------------------------------------------------------------------------|


								Song Structure
   || Intro x1 | Main Riff | Verse x2 | Main Riff | Verse x2 | Main Riff | Keep Movin' 
Section x2 | Pre-Solo x1 | Solo x1 | Main Riff ||


____________________________________________________________________________________________________________________________________________
____________________________________________________________________________________________________________________________________________

2. What's In You

Tuning (Low to High) - C G C F A D


Intro (Gtr.1&2)
E----------------------------------------------------------------------------|
B----------------------------------------------------------------------------|
G----------------------------------------------------------------------------|
D----------------------------------------------------------------------------|
A----------------------------------------------------------------------------|
E-12P10-0-10~~-0-10~~-0-10~~-0-10~~10~~--12P10-0-10~~-0-10~~-0-10~~-10~~10~~-|

E-------------------------------------------------------------------------|
B-------------------------------------------------------------------------|
G-------------------------------------------------------------------------|
D-------------------------------------------------------------------------|
A---------------------------------------------------------------3^^3~~~---|
E-12P10-0-10~~-0-10~~-0-10~~-0-10~~10~~-12P10-0-10~~-0-10~~-0-0-----------|


Verse (Gtr.1&2)
E----------------------------------------------------------------------------|
B----------------------------------------------------------------------------|
G----------------------------------------------------------------------------|
D----------------------------------------------------------------------------|
A----------------------------------------------------------------------------|
E-12P10-0-10~~-0-10~~-0-10~~-0-10~~10~~--12P10-0-10~~-0-10~~-0-10~~-10~~10~~-|

E-------------------------------------------------------------------------|
B-------------------------------------------------------------------------|
G-------------------------------------------------------------------------|
D-------------------------------------------------------------------------|
A---------------------------------------------------------------3^^3~~~---|
E-12P10-0-10~~-0-10~~-0-10~~-0-10~~10~~-12P10-0-10~~-0-10~~-0-0-----------|

2nd Fill
E---------------|
B---------------|
G---------------|
D---------------|
A-x\\\\\\\\\\---
E-x\\\\\\\\\\\--


Chorus (Gtr.1&2)
E-----------------------------------------------------|
B-----------------------------------------------------|
G-7>>--5>>--7>>--5>>---------7>>--5>>--7-6-5----------|
D-7>>--5>>--7>>--5>>---------7>>--5>>--7-6-5-///\\\---|
A-5>>--3>>--5>>--3>>-0-0-0-0-5>>--3>>--5-4-3-///\\\---|
E--------------------0-0-0-0-----------------///\\\---|


Solo
E------------------------------------------------------------------------|
B----------------------------10-13-10H13P10----10------------------------|
G-12^--12^--12^--12^--12^~~~----------------13----13-12-10----10-12-10~~-|
D----------------------------------------------------------12------------|
A------------------------------------------------------------------------|
E------------------------------------------------------------------------|

E-------------------------------------------------------------|
B-----------------------------13^^^-13^^^-13^^^-13^^^-13^~~~--|
G-12^--12^--12^--12^--12^~~~----------------------------------|
D-------------------------------------------------------------|
A-------------------------------------------------------------|
E-------------------------------------------------------------|

E-17-17---17-16---16-15---15----------------------------------------------------|
B----------------------------18^^--15~~--13----15----13----13-------------------|
G-------------------------------------------14----14----14----14\12P10----12----|
D----------------------------------------------------------------------12----12-|
A-------------------------------------------------------------------------------|
E-------------------------------------------------------------------------------|

E--------------------------------------------------------13TR15-15TR17-|
B------------------------------------------13TR15-15TR18---------------|
G-10H12-10~~~-----------------------12TR14-----------------------------|
D----------------------------12TR15------------------------------------|
A---------------------12TR15-------------------------------------------|
E--------------12TR15--------------------------------------------------|

E-13-10-------13-10-13-10-------13-10-13-10-------13-10-------13-10-------/20~~-|
B-------13-10-------------13-10-------------13-10-------13-10-------13-10-------|
G-------------------------------------------------------------------------------|
D-------------------------------------------------------------------------------|
A-------------------------------------------------------------------------------|
E-------------------------------------------------------------------------------|


								Song Structure
                        || Intro | Verse x2 | Chorus x2 | Intro | Verse x2 | Chorus x2 | 
| Chorus x2 | Intro ||


____________________________________________________________________________________________________________________________________________
____________________________________________________________________________________________________________________________________________

3. Suicide Messiah

Tuning (Low to High) -  C G C F A D

Intro
E--------|----------------------------------------------------------------------|
B--------|----------------------------------------------------------------------|
G--------|----------------------------------------------------------------------|
D--------|-0>>>>>>>>>>>>>>>>>>>>>>>>>>>>>>>>>>>>---------0>>>>>>>>>>>>>>>>>>>>>-|
A--------|-0>>>>>>>>>>>>>>>>>>>>>>>>>>>>>>>>>>>>---------0>>>>>>>>>>>>>>>>>>>>>-|
E-(4)^3--|-0>>>>>>>>>>>>>>>>>>>>>>>>>>>>>>>>>>>>--(4)^3--0>>>>>>>>>>>>>>>>>>>>>-|


Riff(Gtr.1&2)
E-----------------------------------------------------------------|
B-----------------------------------------------------------------|
G-----------------------------------------------------------------|
D-----------------------------------------------------------------|
A-0--0-0-3P0-0-0-0-0-0-0-3P0-0-0--0--0-0-3P0-0-0-0-0-0-0-3P0-0-0--|
E-0--0-0-3P0-0-0-0-0-0-0-3P0-0-0--0--0-0-3P0-0-0-0-0-0-0-3P0-0-0--|
     PM-     PM---    PM     PM-     PM-     PM---    PM     PM---|

E-----------------------------------------------------------------|
B-----------------------------------------------------------------|
G-----------------------------------------------------------------|
D-----------------------------------------------------------------|
A-0--0-0-3P0-0-0-0-0-0-0-3P0-0-0--0--0-0-3P0-0-0-0-0-0-0-3P0-0-0--|
E-0--0-0-3P0-0-0-0-0-0-0-3P0-0-0--0--0-0-3P0-0-0-0-0-0-0-3P0-0-0--|
     PM-     PM---    PM     PM-     PM-     PM---    PM     PM---|

Verse
E-----------------------------------------------------------------|
B-----------------------------------------------------------------|
G-----------------------------------------------------------------|
D-----------------------------------------------------------------|
A-0--0-0-3P0-0-0-0-0-0-0-3P0-0-0--0--0-0-3P0-0-0-0-0-0-0-3P0-0-0--|
E-0--0-0-3P0-0-0-0-0-0-0-3P0-0-0--0--0-0-3P0-0-0-0-0-0-0-3P0-0-0--|
     PM-     PM---    PM     PM-     PM-     PM---    PM     PM---|

E-----------------------------------------------------------------|
B-----------------------------------------------------------------|
G-----------------------------------------------------------------|
D-----------------------------------------------------------------|
A-0--0-0-3P0-0-0-0-0-0-0-3P0-0-0--0--0-0-3P0-0-0-0-0-0-0-3P0-0-0--|
E-0--0-0-3P0-0-0-0-0-0-0-3P0-0-0--0--0-0-3P0-0-0-0-0-0-0-3P0-0-0--|
     PM-     PM---    PM     PM-     PM-     PM---    PM     PM---|


Chorus
E----------------------------------------------------------------------------|
B----------------------------------------------------------------------------|
G----------------------------------------------------------------------------|
D-3>>>>---5>>>>-----------------------------------------------3>>>>---5\-----|
A-3>>>>---5>>>>--0-0-0-0-3--0-0-0-3--5-0-0-0-0-3--0-0-0-3--5--3>>>>---5\-----|
E-3>>>>---5>>>>--0-0-0-0-3--0-0-0-3--5-0-0-0-0-3--0-0-0-3--5--3>>>>---5\-----|
                 PM----|    PM--|      PM----|    PM-------------------------|

E-----------------------------------------------------------------------------|
B-----------------------------------------------------------------------------|
G-----------------------------------------------------------------------------|
D-0>>>>-------------------------------------0>>>>-----------------------------|
A-0>>>>----5-5-5-5-5-5-5-5-5-5-5-5-5-5-5-5--0>>>>----5-5-5-5-5-5-5-5-5-5-5-5--|
E-0>>>>----5-5-5-5-5-5-5-5-5-5-5-5-5-5-5-5--0>>>>----5-5-5-5-5-5-5-5-5-5-5-5--|
           PM----------------------------|           PM-----------------------|

E------------------------------------------------------------------------|
B------------------------------------------------------------------------|
G------------------------------------------------------------------------|
D----------0>>>>-------------------------------------3>>>>----5\---------|
A-5-5-5-5--0>>>>----5-5-5-5-5-5-5-5-5-5-5-5-5-5-5-5--3>>>>----5\---------|
E-5-5-5-5--0>>>>----5-5-5-5-5-5-5-5-5-5-5-5-5-5-5-5--3>>>>----5\---------|
  PM----|           PM---------------------------------------------------|


Solo
E--------|-17~~~-17^-----------------------------------10-------------10-------|
B--------|-----------17^^-17^^-17^17-15----15~~-----------13P10-13^~~----13P10-|
G-Random-|------------------------------16-------12^~~-------------------------|
D-Slides-|---------------------------------------------------------------------|
A--------|---------------------------------------------------------------------|
E--------|---------------------------------------------------------------------|

E-------10-------------10--------15P13----13-------13-------------------------|
B----------13P10-13^~~----13P10--------15----15P13----13-15-13-------13-------|
G-12^~~--------------------------------------------------------14P13----12-13-|
D-----------------------------------------------------------------------------|
A-----------------------------------------------------------------------------|
E-----------------------------------------------------------------------------|

E-----------------17~~~-17^----------------------------------------------------|
B---------------------------17^^-17^^17^17-15----15~~--10H13P10----10H13P10----|
G-12P10----10~~~-----------------------------16-----------------12----------12-|
D-------12---------------------------------------------------------------------|
A------------------------------------------------------------------------------|
E------------------------------------------------------------------------------|

E----------------------------------------------------------------------|
B-10/15H18P15----15H18P15----15\10H13P10----10H13P10----10/15H18P15----|
G-------------17----------17-------------12----------12-------------17-|
D----------------------------------------------------------------------|
A----------------------------------------------------------------------|
E----------------------------------------------------------------------|

E-----------------------------------------------------------------/20TP--20^~~~-|
B-15H18P15----15H20P15----15H20P15-------10H13P10----10H13P10-------------------|
G----------17----------17----------17\12----------12----------12----------------|
D-------------------------------------------------------------------------------|
A-------------------------------------------------------------------------------|
E-------------------------------------------------------------------------------|

E-----------------------------------------------------------------------|
B--------------------------------------20^^^--20^^^-20^^20^^20^20^20~~~-|
G---------------------------------------------20^^^-20^^20^^20^20^20~~~-|
D-T15TR3-------T17TR5------T20TR8---------------------------------------|
A-----------------------------------------------------------------------|
E-----------------------------------------------------------------------|

E-20^^^20-20^~~~~~----|
B---------20^~~~~~----|
G---------------------|
D---------------------|
A---------------------|
E---------------------|

Chorus Variation
E---------------------------------------------------------------------------|
B---------------------------------------------------------------------------|
G---------------------------------------------------------------------------|
D---------------------------------0>>>>-------------------------------------|
A-5-5-5-5-5-5-5-5-5-5-5-5-5-5-5-5-0>>>>----5-5-5-5-5-5-5-5-5-5-5-5-5-5-5-5--|
E-5-5-5-5-5-5-5-5-5-5-5-5-5-5-5-5-0>>>>----5-5-5-5-5-5-5-5-5-5-5-5-5-5-5-5--|
  PM----------------------------|          PM-------------------------------|

E-----------------------------------------------------------------------------|
B-----------------------------------------------------------------------------|
G-----------------------------------------------------------------------------|
D-0>>>>------------------------------------3>>>>-5>>>>-3>>>>-5>>>>-3>>>>-5\---|
A-0>>>>----5-5-5-5-5-5-5-5-5-5-5-5-5-5-5-5-3>>>>-5>>>>-3>>>>-5>>>>-3>>>>-5\---|
E-0>>>>----5-5-5-5-5-5-5-5-5-5-5-5-5-5-5-5-3>>>>-5>>>>-3>>>>-5>>>>-3>>>>-5\---|
           PM-----------------------------------------------------------------|

Outro Section
E---------------------------------------------------------------------------|
B---------------------------------------------------------------------------|
G---------------------BASS--------------------------------------------------|
D---------------------SOLO--------------------------------------------------|
A---------------------------------------------------------------------------|
E---------------------------------------------------------------------(4)^3-|

E-------------------------------------|
B-------------------------------------|
G----------5>>>>-------------5>>>>----|
D-0>>>>----5>>>>----0>>>>----5>>>>----|
A-0>>>>----3>>>>----0>>>>----3>>>>----|
E-0>>>>-------------0>>>>-------------|

Outro Solo
E-------------------------10-13-16-13-16-10-13-10-------------10-16-13-16-10-13-|
B-13^^13^(15)~~\-10-13-16-------------------------13-10-13-16-------------------|
G-------------------------------------------------------------------------------|
D-------------------------------------------------------------------------------|
A-------------------------------------------------------------------------------|
E-------------------------------------------------------------------------------|

E-10-------------10-13-16-13-16-10-13-10----10-13-10----------------------------|
B----13-10-13-16-------------------------16----------16-13-16-13-16-10-13-10----|
G-------------------------------------------------------------------------------|
D-------------------------------------------------------------------------------|
A-------------------------------------------------------------------------------|
E-------------------------------------------------------------------------------|

E-----------------------------------------10------------------------------------|
B----10----10-10-10--------------13~~~~~-----13P10------------------------------|
G-14----14----------12^(14)~~~---------------------13-12^(14)^12P10----12----10-|
D-------------------------------------------------------------------12----12----|
A-------------------------------------------------------------------------------|
E-------------------------------------------------------------------------------|

E-------------------------------------------------------------12-------------13-|
B---------------13~~~~~~~~------13^(15)^(13)^(15)~~~~~~~~--10----11-------12----|
G-12^(14)~~~~~------------------------------------------------------10-11-------|
D-------------------------------------------------------------------------------|
A-------------------------------------------------------------------------------|
E-------------------------------------------------------------------------------|

E-14-------15-------16-------17-------18-------19------------------------------|
B----13-------14-------15-------16-------17-------18---------------15~~~~~~~---|
G-------12-------13-------14-------15-------16-------17-19~~~~~----------------|
D------------------------------------------------------------------------------|
A------------------------------------------------------------------------------|
E------------------------------------------------------------------------------|

							FADE.............
E----------13-10----------10----------10----------10-------12-10----13-10-------|
B-16-13-10-------13-10-13----13-10-13----13-10-13----13-10-------10-------13-10-|
G-------------------------------------------------------------------------------|
D-------------------------------------------------------------------------------|
A-------------------------------------------------------------------------------|
E-------------------------------------------------------------------------------|


								Song Structure
	|| Intro | Riff | Verse x2 | Chorus | Riff | Verse x2 | Chorus | Riff | Solo | Chorus 
| Outro Section ||


____________________________________________________________________________________________________________________________________________
____________________________________________________________________________________________________________________________________________

4. Forever Down

Tuning (Low to high) - D G C F A D

Riff
E------------------------------------------------------------------------------|
B------------------------------3-----------------------------------------------|
G------------------------------2-2--------------------------------0-2----------|
D------------------------------0-2--------------------------------0-2----------|
A----------------7P5-7~~---------0-----------------7P5-7~~--------X-0----------|
E-0-0-5P3-5~~-0----------0-0-0------0-0-5P3-5~~-0----------0-0-0--3------------|
  PM|     Ph             PM--|      PM|     Ph             PM--|


Verse
E-----------------------------------------------------------------|
B-----------------------------------------------------------------|
G-----------------------------------------------------------------|
D-2-----2-------2-------------------2-----2-------2---------------|
A-2-2-2-2-2-2-2-2-2-2-2-2-----------2-2-2-2-2-2-2-2-2-2-2-2-------|
E-0-0-0-0-0-0-0-0-0-0-0-0-6~~~-5-3--0-0-0-0-0-0-0-0-0-0-0-0-6~~~--|
    PM|   PM--|   PM----| Ph          PM|   PM--|   PM------------|

Chorus
E------------------------------------------------------------------------------|
B------------------------------3-----------------------------------------------|
G------------------------------2-2--------------------------------0-2----------|
D------------------------------0-2--------------------------------0-2----------|
A----------------7P5-7~~---------0-----------------7P5-7~~--------X-0----------|
E-0-0-5P3-5~~-0----------0-0-0------0-0-5P3-5~~-0----------0-0-0--3------------|
  PM|     Ph             PM--|      PM|     Ph             PM--|

Solo (Prt.1)
E-5H7H10T12P10T12P10P7P5-ETC-------7H9H12T14P12T14P12P9P7-ETC---------|
B---------------------------------------------------------------------|
G---------------------------------------------------------------------|
D---------------------------------------------------------------------|
A---------------------------------------------------------------------|
E---------------------------------------------------------------------|

E-8H10H13T15P13T15P13P10P8-ETC------10H12H15T17P15T17P15P12P10-ETC----|
B---------------------------------------------------------------------|
G---------------------------------------------------------------------|
D---------------------------------------------------------------------|
A---------------------------------------------------------------------|
E---------------------------------------------------------------------|

Solo(Prt.2)
E-----------12-15-12H15P12----12-----------12------------------12-------|
B-15^(17)~~----------------15----15^(17)~~----15-12---------12----15P12-|
G---------------------------------------------------14^(15)-------------|
D-----------------------------------------------------------------------|
A-----------------------------------------------------------------------|
E-----------------------------------------------------------------------|

E-------------------------------------------12-15-12H15P12----12-----------|
B---------12----------------------15^(17)~~----------------15----15^(17)~~-|
G-14^(15)----(15)^14P12----12~~~-------------------------------------------|
D-----------------------14-------------------------------------------------|
A--------------------------------------------------------------------------|
E--------------------------------------------------------------------------|

E-12------------------12---------------------------------------------------|
B----15-12---------12----15P12---------12----------------------------------|
G----------14^(15)-------------14^(15)----14~~~----------------------------|
D---------------------------------------------------------7-9----------7-9-|
A-----------------------------------------------------7-9----------7-9-----|
E------------------------------------------------7-10---------7-10---------|
                                                 PM------------------------|

E-------------------------------------------------------------7-9-10-7-9-10-|
B---------------------------------7-10-----7-10-7-9-10-7-9-10---------------|
G---------7-9---------7-9-----7-9------7-9----------------------------------|
D-----7-9---------7-9-----7-9-----------------------------------------------|
A-7-9---------7-9-----------------------------------------------------------|
E---------------------------------------------------------------------------|

E-------------------10-12-14-10-12-14-------------------12-14-15-12-14-15-17^~~-|
B-10-12-14-10-12-14-------------------12-14-15-12-14-15-------------------------|
G-------------------------------------------------------------------------------|
D-------------------------------------------------------------------------------|
A-------------------------------------------------------------------------------|
E-------------------------------------------------------------------------------|


								Song Structure
		|| Piano Intro | Riff x2 | Verse x4 | Chorus x2 | Verse x4 | Chorus x2 | Solo (Prt.1) 
Solo (Prt.2) | Chorus x2 ||


____________________________________________________________________________________________________________________________________________
____________________________________________________________________________________________________________________________________________

5. In This River

Tuning = Standard

Solo
E-----------------------------|-------------0-----------------------|
B-----------------------------|-------------X-----------------------|
G-2^(3)^(2)^(3)^(2)^(3)^(2)P0-|-4~~-5~~-4~~-2~~-4~~-5~~-4~~-2^(3)~--|
D-----------------------------|-------------------------------------|
A-----------------------------|-------------------------------------|
E-----------------------------|-------------------------------------|

E------------15-12-------15-12-17-12-15-12-------14-12-------14-12-15-12-14-12-|
B-15^(17)~~~-------15-12-------------------15-12-------15-12-------------------|
G------------------------------------------------------------------------------|
D------------------------------------------------------------------------------|
A------------------------------------------------------------------------------|
E------------------------------------------------------------------------------|

E-------14-12-14-12-------14-12-15-12-14-12-------12T-------------12-------|
B-15-12-------------15-12-------------------15-12-----15-12-15~~~----15P12-|
G--------------------------------------------------------------------------|
D--------------------------------------------------------------------------|
A--------------------------------------------------------------------------|
E--------------------------------------------------------------------------|

E------------------------------------------------------------------------------|
B----12-15P12----12-15P12--------------------15~~-15^(17)~~-15-----------------|
G-14----------14----------14^(15)^14P12-14~~----------------14^(16)-(16)^14~~~-|
D------------------------------------------------------------------------------|
A------------------------------------------------------------------------------|
E------------------------------------------------------------------------------|

____________________________________________________________________________________________________________________________________________
____________________________________________________________________________________________________________________________________________

6. You Must Be Blind

Tuning (Low to high) - C G C F A D

Intro (Volume swell)
E-----------------------------------------------------------------------------|
B-----------------------------------------------------------------------------|
G-----------------------------------------------------------------------------|
D-----------------------------------------------------------------------------|
A-2-3-2-3-2-3-2-3-2-3-2-3-2-3-2-3-2-3-2-3-2-3-2-3-2-3-2-3-2-3-2-3-2-3-2-3-2-3-|
E-2-3-2-3-2-3-2-3-2-3-2-3-2-3-2-3-2-3-2-3-2-3-2-3-2-3-2-3-2-3-2-3-2-3-2-3-2-3-|

Verse
E----------------------------------------------------------------------|
B----------------------------------------------------------------------|
G----------------------------------------------------------------------|
D-5--------------------------------5>>>>-------------------------------|
A-5--5-5-5-5-5-5-5-5-5-5-5-5-5-5-5-5>>>>--2-3-2-3-2--2-3-2-3-2--2-3-2--|
E-5--5-5-5-5-5-5-5-5-5-5-5-5-5-5-5-5>>>>--2-3-2-3-2--2-3-2-3-2--2-3-2--|
     PM--------------------------|        PM---------------------------|

E------------------------------|
B------------------------------|
G------------------------------|
D------------------------------|
A-2-3-2-3-2--2-3-2-3-2--2-3-2--|
E-2-3-2-3-2--2-3-2-3-2--2-3-2--|
  PM---------------------------|

Pre-Chorus
E-----------------------------------------------------------|
B-----------------------------------------------------------|
G-----------------------------------------------------------|
D-----------------------------------------------------------|
A-------3~~-------3~~----------2-3-2-3-2--2-3-2-3-2--2-3-2--|
E-2-4-5-----2-4-5-----2-4-5~~--2-3-2-3-2--2-3-2-3-2--2-3-2--|
  PM--|     PM--|     PM|      PM---------------------------|

Chorus (Gtr.1)
E------------------------------------------------------------|
B------------------------------------------------------------|
G------------------------------------------------------------|
D------------------------------------------------------------|
A-2-3-2-3-2--2-3-2-3-2--2-3-2--2-3-2-3-2--2-3-2-3-2--2-3-2---|
E-2-3-2-3-2--2-3-2-3-2--2-3-2--2-3-2-3-2--2-3-2-3-2--2-3-2---|
  PM---------------------------------------------------------|

(Gtr.2)
E----------------21TP-----------------21TP---|
B------20TP-22TP------------20TP-22TP--------|
G-21TP-----------------21TP------------------|
D--------------------------------------------|
A--------------------------------------------|
E--------------------------------------------|

Solo
E-16----------15----14-13--16----------------------------|
B----15----14----13----12-----15-------------------------|
G-------16-----------------------16-----13----12----11---|
D------------------------------------12----12----12------|
A--------------------------------------------------------|
E--------------------------------------------------------|

E-15-9-12----9-------------------------------------------------|
B---------15--12-15-9-12----9----------------------------------|
G------------------------15---12-15-9-12----9------------------|
D----------------------------------------15---12-15-9--9-12-15-|
A--------------------------------------------------------------|
E--------------------------------------------------------------|


E----------------------------------------------------------9---|
B-------------------------9-------9-12----9-12-15-9-12-15------|
G-9-------9-12----9-12-15---12-15------15----------------------|
D---12-15------15----------------------------------------------|
A--------------------------------------------------------------|
E--------------------------------------------------------------|


E-------9-12----9-12-15----16----------15----14-13--16--------------------------|
B-12-15------15---------------15----14----13----12-----15-----------------------|
G--------------------------------16-----------------------16-----13----12----11-|
D-------------------------------------------------------------12----12----12----|
A-------------------------------------------------------------------------------|
E-------------------------------------------------------------------------------|

E------------------------------------------------------------------------------|
B------------------------------------------------------------------------------|
G---------9-12----9-12-15-9-12----9------------------9-12----9-12-15-9-12----9-|
D-9-12-15------15--------------15---12-15-12-9-12-15------15--------------15---|
A------------------------------------------------------------------------------|
E------------------------------------------------------------------------------|

E-------------------------------------------------------------------------------|
B------------------9-12----9-12-15-9-12----9------------------9-12----9-12-15-9-|
G----------9-12-15------15--------------15---12-15-12-9-12-15------15-----------|
D-21-15-12----------------------------------------------------------------------|
A-------------------------------------------------------------------------------|
E-------------------------------------------------------------------------------|

E--------------------------9-12----9-12-15-9-12----9------------------9-12----9-|
B-12----9----------9-12-15------15--------------15---12-15-12-9-12-15------15---|
G----15---12-15-12--------------------------------------------------------------|
D-------------------------------------------------------------------------------|
A-------------------------------------------------------------------------------|
E-------------------------------------------------------------------------------|

E-12-15-9-12----9--------------------|
B------------15---12-15-12--17~~~~---|
G------------------------------------|
D------------------------------------|
A------------------------------------|
E------------------------------------|


								Song Structure
        || Intro | Verse x2 | Pre-Chorus x2 | Chorus x4 | Verse x2 | Pre-Chorus x2 | 
x4 | Solo | Pre-Chorus x2 | Chorus x8 ||


____________________________________________________________________________________________________________________________________________
____________________________________________________________________________________________________________________________________________

7. Death March

Tuning (Low to high) - D G C F A D

Intro
E--------------------------------------------|
B--------------------------------------------|
G--------------------------------------------|
D---4-----4-------5--7------4-----4-------5--|
A-----X-----X-----X--X--------X-----X-----X--|
E-2-----2-----2---3--5----2-----2-----2---3--|


Riff
E----------------------------------------------|
B----------------------------------------------|
G----------------------------------------------|
D-4----------------5--7---4------------4---5---|
A-x----------------x--x---x------------x---x---|
E-2--2-2-2-2-2-2---3--5---2--2-2-2-2-2-2---3---|
     PM------|               PM----------------|

Fill
E--------|
B--------|
G-----0--|
D--------|
A--------|
E-2/3----|


Verse
E----------------------------------------------|
B----------------------------------------------|
G----------------------------------------------|
D-4----------------5--7---4------------4---5---|
A-x----------------x--x---x------------x---x---|
E-2--2-2-2-2-2-2---3--5---2--2-2-2-2-2-2---3---|
     PM------|               PM----------------|

Chorus
E-----------------------------------------------------------------|
B-----------------------------------------------------------------|
G-11---10---6---4---9---8---6---4---11---10---6---4---9---14------|
D-x----x----x---x---x---x---x---x---x----x----x---x---x---x-------|
A-9----8----4---2---7---6---4---2---9----8----4---2---7---12------|
E-----------------------------------------------------------------|


Solo
E------------------------------------------------------------------------------|
B-----------------------15--14-15-14--14h15p14p12------------------------------|
G-14^(16)^(14)^(16)~~~----------------------------14^(16)~~--14-16--16^(18)^16-|
D------------------------------------------------------------------------------|
A------------------------------------------------------------------------------|
E------------------------------------------------------------------------------|

E-------------------------------------------------------------------------|
B-------------------------------------------------------------------------|
G-p14h16p14-14-16-16^(18)^16p14----16----14~~-----------------------------|
D-------------------------------16----16------16p14----14-----------------|
A---------------------------------------------------16----16p14/12--------|
E------------------------------------------------------------------14~~~--|

E----------------------------------------------------------------------------|
B----------------------------------------------------------------------------|
G----------------------------------------------------------------------14----|
D----------------------------------------------14----16----14-16-14-16----16-|
A-------------12----14----12-14-12-14-16-14-16----16----16-------------------|
E-12-14-12-14----14----14----------------------------------------------------|


E-------------------------------------14----17----17-14-17-14-------17^(19)~~~-|
B-------------------14----17----14-17----17----17-------------17-14------------|
G-16----14-16-14-16----16----16------------------------------------------------|
D----16------------------------------------------------------------------------|
A------------------------------------------------------------------------------|
E------------------------------------------------------------------------------|

E-17~~~~~~~--14--------------------------------------------------------------|
B-17^(19)~~-----17^(19)~~-14----14h19p14----14h19p14----14h19p14----14h19p14-|
G----------------------------15----------15----------15----------15----------|
D----------------------------------------------------------------------------|
A----------------------------------------------------------------------------|
E----------------------------------------------------------------------------|

E------------------|
B-15^(17)~~~~~-----|
G------------------|
D------------------|
A------------------|
E------------------|


								Song Structure
			||Intro x2 | Riff x2 | Verse x4 | Chorus | Riff x2 | Verse x4 | Chorus | Solo | Chorus | Riff x4||


____________________________________________________________________________________________________________________________________________
____________________________________________________________________________________________________________________________________________


8. Dr. Octavia

Tuning (Low to high) - D G C F A D

(w/ Octave Pedal)
E-------------------------------------------------------------------|
B-------------------------------------------------------------------|
G---9^(10)(11)(12)^(9)p7--------------9^(10)(11)(12)^(9)p7----------|
D------------------------9p7-------------------------------9p7------|
A-7--------------------------7------7--------------------------7----|
E----------------------------0---------------------------------0----|

E--------------------------------------------------------------------------------|
B--------------------------------------------------------------------------------|
G-------12-14~~-------12-14~~-------12-14-~~-------12-14-------12-14-------12-14-|
D-12-14---------12-14---------12-14----------12-14-------12-14-------12-14-------|
A--------------------------------------------------------------------------------|
E--------------------------------------------------------------------------------|

E-------------------15-12--------------------------------------------------------|
B-------------12-15-------15-12-------15-12--------------------------------------|
G-------12-14-------------------14-12-------14-12-------14-12--------------------|
D-12-14-------------------------------------------14-12-------14-12-------14-14~-|
A-------------------------------------------------------------------14-12--------|
E--------------------------------------------------------------------------------|

E--------------------------------------------------------------------------------|
B-----------------------------------------------------------------------12-------|
G------------------------------16^(17)(18)(19)^(16)P14----14~~-12-14-15----15-14-|
D--14P12--------------------14-------------------------17------------------------|
A--------14P12-------------------------------------------------------------------|
E----------------15P12P0---------------------------------------------------------|

E-------------------------------------------------------------------------------|
B----------12----------------12----------------12----------------12-------------|
G-12-14-15----15-14-12-14-15----15-14-12-14-15----15-14-12-14-15----15-14-12-14-|
D-------------------------------------------------------------------------------|
A-------------------------------------------------------------------------------|
E-------------------------------------------------------------------------------|

E----------------------12-15-12-17-12-15-12--------------------------------------|
B----12-14----12-14-15----------------------15-12-------15-12--------------------|
G-15-------15-------------------------------------14-12-------14-12--------------|
D-------------------------------------------------------------------14-12-14-14~-|
A--------------------------------------------------------------------------------|
E--------------------------------------------------------------------------------|

E-------------------------------------------|
B-------------------------------------------|
G-------------------------------------------|
D-14P12-------------------------------------|
A-------14/12~~-10--------------------------|
E------------------12P0---------------------|


____________________________________________________________________________________________________________________________________________
____________________________________________________________________________________________________________________________________________

9. Say What You Will

Tuning (Low to high) - D G C F A D

Riff (Gtr.1)
E-----------------------------------------------------------|
B-----------------------------------------------------------|
G----------------------------------------------------4~~~---|
D-4/5\4-4-4-4-2-4--------2----------4/5\4-4-4-4-2-4--4~~~---|
A-2/3\2-0-2-0-2-4--2-3-4---4-3-0----2/3\2-0-2-0-2-4---------|
E-------------0-2-------------------------------0-2---------|
                   PM---------------------------------------|                     Ph

(Gtr.2)
E---------------------------------------------------------|
B---------------------------------------------------------|
G-11TP---------14TP-----------------17TP---------11TP-----|
D-X-TP---------X-TP-----------------X-TP---------X-TP-----|
A-9-TP---------12TP-----------------15TP---------9-TP-----|
E---------------------------------------------------------|

Verse
E-----------------------------------------------------------|
B-----------------------------------------------------------|
G----------------------------------------------------4~~~---|
D-4/5\4-4-4-4-2-4--------2----------4/5\4-4-4-4-2-4--4~~~---|
A-2/3\2-0-2-0-2-4--2-3-4---4-3-0----2/3\2-0-2-0-2-4---------|
E-------------0-2-------------------------------0-2---------|
                   PM---------------------------------------|                     Ph

Pre-Chorus
E-----------------------------------------------------------|
B-----------------------------------------------------------|
G------------------------4--6-------------------------6--4--|
D-4/6-----6-----6--------4--6--4/6-----6-----6--------6--4--|
A-4/6-6-6-6-6-6-6-6-6-6--2--4--4/6-6-6-6-6-6-6-6-6-6--4--2--|
E-2/4-4-4-4-4-4-4-4-4-4--------2/4-4-4-4-4-4-4-4-4-4--------|
      PM|   PM|   PM--|            PM|   PM|   PM--|

Chorus
E----------------------------------------------------------------------------|
B----------------------------------------------------------------------------|
G----------7>>>--4>>>---------9>>>--4>>>------------7>>>--4>>>---------9>>>--|
D-4>>>--/7-7>>>--4>>>--4>>>>--9>>>--4>>>---4>>>--/7-7>>>--4>>>--4>>>>--9>>>--|
A-4>>>--/7-5>>>--2>>>--4>>>>--7>>>--2>>>---4>>>--/7-5>>>--2>>>--4>>>>--7>>>--|
E-2>>>--/5-------------2>>>>---------------2>>>--/5-------------2>>>>--------|


E--------------------------|
B--------------------------|
G-5>>--5>>--5>>--5>>--5>>--|
D-5>>--5>>--5>>--5>>--5>>--|
A-3>>--3>>--3>>--3>>--3>>--|
E--------------------------|

Pre-Solo
E-------------------------------------------------------------------|
B-------------------------------------------------------------------|
G-------------------------------------------------------------------|
D---------4-----4--------------------------4-----4------------------|
A-2/4-4-4-4-4-4-4-4-4-4-4-4-4-4-4--2/4-4-4-4-4-4-4-4-4-4-4-4-4-4-4--|
E-0/2-2-2-2-2-2-2-2-2-2-2-2-2-2-2--0/2-2-2-2-2-2-2-2-2-2-2-2-2-2-2--|
      PM|   PM|   PM------------|      PM|   PM|   PM---------------|

Solo
E----------|---------------------------------------------------------------------|
B-/20------|--------------------------------19--------------------------------16-|
G----------|-----------------------------------(20)^18p16----18----16-18^(20)----|
D----------|-16-18-18--16-18~~--16-18~~--16---------------18----18---------------|
A-----20\--|---------------------------------------------------------------------|
E----------|---------------------------------------------------------------------|

E-------------------------------------------------------------------------------|
B-19-16--------------19^(21)~~---------------------------------19---------------|
G-------(20)^18-16~~----------------------------------------------(20)^18P16----|
D-------------------------------16-18-18--16-18~~--16-18~~--16---------------18-|
A-------------------------------------------------------------------------------|
E-------------------------------------------------------------------------------|

E-------16------------------16----16----------16---------------------------|
B----------19p16---------16-------16-------------19p16----16---------------|
G-18-------------18^(20)-------18----18^(20)-----------19----(19)^18-16~~--|
D----18--------------------------------------------------------------------|
A--------------------------------------------------------------------------|
E--------------------------------------------------------------------------|

E---------------------------13TR16---16TR18---18TR21---21^(23)~~--20-21-18-20----|
B-11TR13---13TR16---16TR18----------------------------------------------------21-|
G--------------------------------------------------------------------------------|
D--------------------------------------------------------------------------------|
A--------------------------------------------------------------------------------|
E--------------------------------------------------------------------------------|

E-18---------------------------------------------------------18-21~~-------------|
B----20-21-18-20----18---------------------------------18-21---------------18-21-|
G----------------21----20-21-18-20^(21)^20-18~~--18-20---------------18-20-------|
D--------------------------------------------------------------------------------|
A--------------------------------------------------------------------------------|
E--------------------------------------------------------------------------------|

E-18-20~~--20-21-20-18-20-18----18---------------------------------------|
B----------------------------21----21-20-18-20-21~~--18TR21--------------|
G-------------------------------------------------------------20~~~------|
D------------------------------------------------------------------------|
A------------------------------------------------------------------------|
E------------------------------------------------------------------------|


								Song Structure

||Riff x2 | Verse x2 | Pre-Chorus x2 | Riff | Chorus | Riff x2 | Verse x2 | Pre-Chorus 
| Riff | Chorus | Pre-Solo x2 | Solo | Chorus | 								Riff x2 ||


____________________________________________________________________________________________________________________________________________
____________________________________________________________________________________________________________________________________________

10. Too Tough To Die

Tuning (Low To High) - D G C F A D

Riff(W/Wah)
E-------------------------------------------------------------------|
B-------------------------------------------------------------------|
G-9>>>>----12>>----11>>----7>>>----9>>>>----15>>----14>>----12>>----|
D-X>>>>----X->>----X->>----X>>>----X>>>>----X->>----X->>----X->>----|
A-7>>>>----10>>----9->>----5>>>----7>>>>----13>>----12>>----10>>----|
E-------------------------------------------------------------------|

Verse
E-----------------------------------12*--------------5*------------------|
B--------------------------------------12*--------------5*---------------|
G-9>>>>>>>>--------------------------------------------------------------|
D-X>>>>>>>>--------------------------------------------------------------|
A-7>>>>>>>>--------------------------------------------------------------|
E------------------------------------------------------------------------|

Chorus
E------------------------------------------------------------------------------|
B------------------------------------------------------------------------------|
G-5>>>>--5/7>-7/9>>>>--9/11>>--11/12>>>>--12/11-11/9>>----------9>>--7>>--4>>--|
D-X>>>>--X/X>-X/X>>>>--X/X->>--X-/X->>>>--X-/X--X-/X>>----------X>>--X>>--X>>--|
A-3>>>>--3/5>-5/7>>>>--7/9->>--9-/10>>>>--10/9--9-/7>>----------7>>--5>>--2>>--|
E-------------------------------------------------------0-0-0-0----------------|
                                                        PM----|

E---------|
B---------|
G-11>>>---|
D-X->>>---
A-9->>>---|
E---------|


Bridge
E------------------------------|
B----------3>>>----------------|
G----------2>>>--2>>>----------|
D-2>>>>----0>>>--2>>>----------|
A-2>>>>----------0>>>----------|
E-0>>>>----------------0-3~~~--|
                      PM Ph

Solo
E-----------------------------------------------------------------------------|
B-------------------14^(15)^(14)-(14)^(15)^(14)----------------------^17^(15)-|
G-14^(14)^(15)^(16)-----------------------------14-14^(14)^(15)^(16)----------|
D-----------------------------------------------------------------------------|
A-----------------------------------------------------------------------------|
E-----------------------------------------------------------------------------|

E-----------------------------------------------------------------------------|
B-15^(17)~~~------------------------------------------------------------------|
G-------------14^(14)^(15)^(16)-----------------------------------------------|
D-------------------------------------------------11-12-14----------11-12-14--|
A----------------------------------------10-12-14----------10-12-14-----------|
E-------------------------------10-12-14--------------------------------------|
                                PM--------------------------------------------|

E----------------------------------------------------------|
B-------------------------------------12-14-15/17~~~~~~----|
G-11-12-14----------11-12-14-12-14-15----------------------|
D----------11-12-14----------------------------------------|
A----------------------------------------------------------|
E----------------------------------------------------------|
  PM-------------------------------------------------------|


								Song Structure
		|| Bass Intro | Riff | Verse | Chorus | Riff | Verse | Chorus | Bridge x4 | Solo | 
x4 | Chorus | Riff ||


____________________________________________________________________________________________________________________________________________
____________________________________________________________________________________________________________________________________________

11. Electrice Hellfire

Tuning (Low to high) - Eb Ab Db Gb Bb Eb

Intro
E-------------------------------------------------------------------|
B-(2)-----------------------------------5^(6)-5^(6)-5^(6)-5^(6)~~~--|
G-(6)^4p2----------------(6)^4~~~~~~~~~-----------------------------|
D---------4-4~~~~~~~~-----------------------------------------------|
A-------------------------------------------------------------------|
E-------------------------------------------------------------------|

Riff
E------------------------------------------------------------------------------|
B------------------------------------------------------------------------------|
G---------------------------------2---4---------------------------------2--4---|
D---------------------------------2---4---------------------------------2--4---|
A---------------------------------0---2---------------------------------0--2---|
E-2-2-2-0--0-2-2-2-0--0-2-2-2-0-----------2-2-2-0--0-2-2-2-0--0-2-2-2-0--------|
  PM--------------------------|           PM-----------------------------------|

Verse
E------------------------------------------------------------------------------|
B------------------------------------------------------------------------------|
G---------------------------------2---4---------------------------------2--4---|
D---------------------------------2---4---------------------------------2--4---|
A---------------------------------0---2---------------------------------0--2---|
E-2-2-2-0--0-2-2-2-0--0-2-2-2-0-----------2-2-2-0--0-2-2-2-0--0-2-2-2-0--------|
  PM--------------------------|           PM-----------------------------------|

Fills
E------------------|
B------------------|
G-0TR3-------------|
D------------------|
A------------------|
E------------------|

Chorus
E-----------------------------------------------------------------------------------------------|
B-----------------------------------------------------------------------------------------------|
G-----------------------------------------------------------------------------------------------|
D------------2--------------2---------------2--------------2--------------2--------------2---4--|
A-2-4-2-0--2-0-2^(3)^(2)~~--0----2-4-2-0--2-0-2^(3)^(2)~~--0---2-4-2-0--2-0-2^(3)^(2)~~--0---2--|
E-----------------------------------------------------------------------------------------------|
  PM--|   PM                     PM--|   PM                    PM-------------------------------|   PM

Solo
E-------------------------------------------------------------------------------------|
B---------14-17---------14-17---------14-17---------14-17---------14-17---------14-17-|
G-16^(18)-------16^(18)-------16^(18)-------16^(18)-------16^(18)-------16^(18)-------|
D-------------------------------------------------------------------------------------|
A-------------------------------------------------------------------------------------|
E-------------------------------------------------------------------------------------|

E-------------------------------------------------------------------------------------|
B---------14-17---------14-17---------14-17---------14-17---------14-17---------14-17-|
G-16^(18)-------16^(18)-------16^(18)-------16^(18)-------16^(18)-------16^(18)-------|
D-------------------------------------------------------------------------------------|
A-------------------------------------------------------------------------------------|
E-------------------------------------------------------------------------------------|

E-------------------------------------------------------------------------------------|
B---------14-17---------14-17---------14-17---------14-17---------14-17--17^(19)~~~~--|
G-16^(18)-------16^(18)-------16^(18)-------16^(18)-------16^(18)---------------------|
D-------------------------------------------------------------------------------------|
A-------------------------------------------------------------------------------------|
E-------------------------------------------------------------------------------------|

E-16-17-14-16----14----------------14-16-14------------------------------------14-------|
B-------------17----16-17-14-16-17----------17-16-14----14------------------14----17P14-|
G----------------------------------------------------17----17-16-14-16^(18)-------------|
D---------------------------------------------------------------------------------------|
A---------------------------------------------------------------------------------------|
E---------------------------------------------------------------------------------------|

E-----------------------------------------------------------------------14-14-14-17^(19)~~(19)^17~~--|
B----14-----------------------------------------------------------------14-14-14---------------------|
G-17----16^(17)^(16)-14~~------------------------------14----14-16^(18)------------------------------|
D------------------------------------14----14-16-14-16----16-----------------------------------------|
A---------------------------16-14-16----16-----------------------------------------------------------|
E----------------------------------------------------------------------------------------------------|


								Song Structure
				|| Intro | Riff x2 | Verse x2 | Chorus | Verse x2 | Chorus | Solo | Riff x2 ||


____________________________________________________________________________________________________________________________________________
____________________________________________________________________________________________________________________________________________

12. Spread Your Wings

Tuning (Low to high) - D A D G B E

Intro (W/ Flange)
E----------------------------------------------------------------------------------------|
B----------------------------------------------------------------------------------------|
G----------------------5>>>>>>>>>>>>>>>>---------------------------5>>>>>>>>>>>>>>>>-----|
D-0>>>>>>>>>>>>>>>-----5>>>>>>>>>>>>>>>>------0>>>>>>>>>>>>>>>-----5>>>>>>>>>>>>>>>>-----|
A-0>>>>>>>>>>>>>>>-----3>>>>>>>>>>>>>>>>------0>>>>>>>>>>>>>>>-----3>>>>>>>>>>>>>>>>-----|
E-0>>>>>>>>>>>>>>>----------------------------0>>>>>>>>>>>>>>>---------------------------|


Riff
E------------------------------------------------|
B------------------------------------------------|
G------------------------------------------------|
D-------------------------3h5-3------------------|
A-3h5---3h5---3h5---3h5---------5~~--------------|
E-----0-----0-----0-----0------------3^(5)^3~~~--|
     PM     PM    PM    PM           Ph

Verse
E------------------------------------------------------------------------|
B------------------------------------------------------------------------|
G------------------------------------------------------------------------|
D-6/5--3-0------0---0------3--5---6/5--3-0------0---0--------------------|
A-6/5--3-0--0-0-0-0-0-0-0--3--5---6/5--3-0--0-0-0-0-0-0-0----------------|
E-6/5--3-0--0-0-0-0-0-0-0--3--5---6/5--3-0--0-0-0-0-0-0-0--3^(5)^(3)~~~--|
      PM    PM|  PM   PM|             PM    PM|   PM  PM|  Ph

Pre-Chorus
E---------------|
B---------------|
G---------------|
D-5>>>>--3>>>>--|
A-5>>>>--3>>>>--|
E-5>>>>--3>>>>--|

Chorus
E------------------------------------------------------------------------|
B------------------------------------------------------------------------|
G------------------------------------------------------------------------|
D-6/5--3-0------0---0------3--5---6/5--3-0------0---0--------------------|
A-6/5--3-0--0-0-0-0-0-0-0--3--5---6/5--3-0--0-0-0-0-0-0-0----------------|
E-6/5--3-0--0-0-0-0-0-0-0--3--5---6/5--3-0--0-0-0-0-0-0-0--3^(5)^(3)~~~--|
      PM    PM|  PM   PM|             PM    PM|   PM  PM|  Ph


Solo
E----------------------------------------------------------------------|
B----------------------------------------------------------------------|
G-5TR7--------/17TR19\16TR18\15TR17\14TR16\13TR15\12TR14\11TR13\\\\\---|
D----------------------------------------------------------------------|
A----------------------------------------------------------------------|
E----------------------------------------------------------------------|

E-----------10-----------------10-----------------10-----------------10--------|
B-13^(15)~~----13P10--------------13P10-13^(15)~~----13P10--------------13P10--|
G--------------------12^(14)~~-----------------------------12^(14)~~-----------|
D------------------------------------------------------------------------------|
A------------------------------------------------------------------------------|
E------------------------------------------------------------------------------|

E-----------10-----------------10-------13^(15)(15)(15)^(13)^(15)~~-----|
B-13^(15)~~----13P10--------------13P10---------------------------------|
G--------------------12^(14)~~------------------------------------------|
D-----------------------------------------------------------------------|
A-----------------------------------------------------------------------|
E-----------------------------------------------------------------------|

E-------------------------------------------------------------------------------------------|
B-------------------------------------------------------------------------------------------|
G-------------------------------------------------------------------------------------------|
D-12----------------12----------------12----------------12----------------12----------------|
A----15-14-12-14-15----15-14-12-14-15----15-14-12-14-15----15-14-12-14-15----15-14-12-14-15-|
E-------------------------------------------------------------------------------------------|

E---------------------------------------------------------------------------13-15-17-13-15-17-|
B---------------------------------------------------------13-15-17-13-15-17-------------------|
G---------------------------------------14-15-17-14-15-17-------------------------------------|
D-12---------------------------14-15-17-------------------------------------------------------|
A---15-14-12-14-15-17-14-15-17----------------------------------------------------------------|
E---------------------------------------------------------------------------------------------|

E-17TP-15-17-15-13----------------------------------------------------------|
B------------------15-13-15-17~~~~---13^(15)(15)^(13)^(15)^(13)-13^(15)~~~--|
G---------------------------------------------------------------------------|
D---------------------------------------------------------------------------|
A---------------------------------------------------------------------------|
E---------------------------------------------------------------------------|

E-T15P13T15P13T15P12T15P12T15P13T15P13T15P12T15P12P10H12H13P12P10-----------|
B-----------------------------------------------------------------13~~~-----|
G---------------------------------------------------------------------------|
D---------------------------------------------------------------------------|
A---------------------------------------------------------------------------|
E---------------------------------------------------------------------------|


								Song Structure
		|| Intro x2 | Riff x2 | Verse x4 | Pre-Chorus | Chorus | Riff x2 | Verse x4 | 
| Chorus | Solo | Chorus x2 ||


____________________________________________________________________________________________________________________________________________
____________________________________________________________________________________________________________________________________________

13. Been A Long Time

Tuning (Low to high) - D G C F A D

Verse
E----------------------------------------------------------------------------------------|
B----------------------------------------------------------------------------------------|
G----------------------------------------------------------------------------------------|
D-2-2-----------------2-2--------------------2-2-----------------2-2---------------------|
A-2-2-----------------2-2--------------------2-2-----------------2-2---------------------|
E-0-0-----------------0-0--------0-6~~-0-6~~-0-0-----------------0-0---------0-6~~-0-6~~-|


Chorus
E-----------------------------------------------------------------|
B-----------------------------------------------------------------|
G-----------------------------------------------------------------|
D------------------------2-------------------------------2--------|
A------------------------2--2-2-2------------------------2--2-2-2-|
E-10~~---6~~---5~~---3~~-0--0-0-0-10~~---6~~---5~~---3~~-0--0-0-0-|
                            PM--|                           PM--|

Solo
E-10----------9----------7-------------------------10----------9----------7----------------------------------------------------|
B-13^(15)~~--12^(14)~~--10^(12)~~------------------13^(15)~~--12^(14)~~--10^(12)~~---------------------------------------------|
G----------------------------------2^(4)^(2)----------------------------------------/17TR19\16TR18\15TR17\14TR16\13TR15\12TR14-|
D------------------------------------------------------------------------------------------------------------------------------|
A--------------------------------------------x\\\\-----------------------------------------------------------------------------|
E--------------------------------------------x\\\\-----------------------------------------------------------------------------|

E---------------------------------------------------------------------------------|
B---------12H15P12---------12H15P12---------12H15P12---------12H15P12--15^(17)~~--|
G-14^(16)----------14^(16)----------14^(16)----------14^(16)----------------------|
D---------------------------------------------------------------------------------|
A---------------------------------------------------------------------------------|
E---------------------------------------------------------------------------------|

E-15-12-14-15-15-12-----------------------------------------------------------------------------------------------------------|
B-------------------15-12-14-15-15-12-----------------------------------------------------------------------------------------|
G-------------------------------------16-15-12-15-12----12~~--------------------------12-14p12----12h14-14^(16)^(14)p12-------|
D----------------------------------------------------14-------------12-14p12----12h14----------14-----------------------14~~--|
A-------------------------------------------------------------12h14----------14-----------------------------------------------|
E-----------------------------------------------------------------------------------------------------------------------------|

E-12---------14---------15---------17-----------------22---------22---------22-22-------22^(24)~~---|
B-15^(17)~~--17^(19)~~--18^(20)~~--20^(22)~~--22^(24)----22^(24)----22^(24)----22^(24)--------------|
G---------------------------------------------------------------------------------------------------|
D---------------------------------------------------------------------------------------------------|
A---------------------------------------------------------------------------------------------------|
E---------------------------------------------------------------------------------------------------|

E-----------------------------------|
B-----------------------------------|
G-----------------------------------|
D-----------------------------------|
A-----------------------------------|
E-7-7-7-6-6-6-3-3-6-6-6-5-5-5-3-0---|
  PM--------------------------------|


								Song Structure
				     || Verse x2 | Chorus x2 | Verse x2 | Chorus x2 | Solo | Chorus x4 ||


____________________________________________________________________________________________________________________________________________
____________________________________________________________________________________________________________________________________________

14. Dirt On The Grave  (Acoustic Guitar Nylon Strung)

Tuning (Low to high) - E A D G B E

Intro
E------------------------------------------------|
B----1---0H1-----1---0H1-----1---0H1-----1---0H1-|
G------2-----------2-----------2-----------2-----|
D------------------------------------------------|
A-0>>>>>>>---3>>>>>>>>---------------0>>>>>>>>---|
E------------------------3>>>>>>>>---------------|


Main Riff (Gtr.1)
E------------------------------------------------|
B----1---0H1-----1---0H1-----1---0H1-----1---0H1-|
G------2-----------2-----------2-----------2-----|
D------------------------------------------------|
A-0>>>>>>>---3>>>>>>>>---------------0>>>>>>>>---|
E------------------------3>>>>>>>>---------------|

(Gtr.2 Electric w/voicebox or wah)
E----------------------------------------|
B-12^(13)^-12-12^(13)^-10----------------|
G-------------------------12-12^(14)~~---|
D----------------------------------------|
A----------------------------------------|
E----------------------------------------|

Verse
E------------------------------------------------|
B----1---0H1-----1---0H1-----1---0H1-----1---0H1-|
G------2-----------2-----------2-----------2-----|
D------------------------------------------------|
A-0>>>>>>>---3>>>>>>>>---------------0>>>>>>>>---|
E------------------------3>>>>>>>>---------------|

Chorus (Just strum the chords)
E-3-------0--------3-------0--------3-------0--------3---3-|
B-3-------1--------3-------1--------3-------1--------3---3-|
G-0-------2--------0-------2--------0-------2--------0---0-|
D-0-------2--------0-------2--------0-------2--------0---0-|
A-2-------0--------2-------0--------2-------0--------2---x-|
E-3----------------3----------------3----------------3---2-|

Solo
E-0--0--0--0--0--0--0--0--0--0--0--0--0--0--0--0--0--0--0----|
B-13-13-13-13-13-13-13/12-12-12-12-12-12-12-12/10-10-8--10---|
G------------------------------------------------------------|
D------------------------------------------------------------|
A------------------------------------------------------------|
E------------------------------------------------------------|

E-0--0--0--0--0--0--0--0--0--0--0--0--0--0---0--0---|
B-13-13-13-13-13-13-13/12-12-12-12-15-13-12--8--10--|
G---------------------------------------------------|
D---------------------------------------------------|
A---------------------------------------------------|
E---------------------------------------------------|

E-------12--------10--------8------7---8-7------10-12-10-8/7-8-10-8-7-|
B----13--------12--------10------X---------8--------------------------|
G-14--------12--------10-------X--------------------------------------|
D---------------------------------------------------------------------|
A---------------------------------------------------------------------|
E---------------------------------------------------------------------|

E-7-8-7----7---------0-0-0-0-0-0-0-0-0-0-0-0-0-0-0-0-0-0-0-0-0-|
B-------10---8/10~~--------------------------------------------|
G--------------------9-9-9-9-9-9-9-9-7-7-7-7-7-7-7-5-5---------|
D------------------------------------------------------5/7-----|
A--------------------------------------------------------------|
E--------------------------------------------------------------|


								Song Structure
		|| Intro x2 | Main Riff x2 | Verse x4 | Chorus | Main Riff x2 | Verse x4 | Chorus | 
| Chorus | Main Riff x4 ||


____________________________________________________________________________________________________________________________________________
____________________________________________________________________________________________________________________________________________

15. I Never Dreamed

Melody
E----------------------------------------|
B-5^(7)-5~~--2-3-2-----------------------|
G------------------4-2~~--4~~--2~~--4~~--|
D----------------------------------------|
A----------------------------------------|
E----------------------------------------|

First Solo
E--------------------------------------------------------------------------10--------------------------|
B-(12)(12)(12)(12)(12)^(10)-10-10~~~---------------7-8-7H8P7---7--------10----10------------10---------|
G------------------------------------9^(10)(11)~~------------9---9^(11)----------(11)^(9)--(11)^(9)--7-|
D------------------------------------------------------------------------------------------------------|
A------------------------------------------------------------------------------------------------------|
E------------------------------------------------------------------------------------------------------|

E-------------------------------------------------------12^(14)(14)(14)(14)-(14)^(12)-10H12~~----------|
B----------------------------------------------------------------------------------------------10H12~~-|
G---7H9-7H9-7----------------------7-9-9^(11)^(9)-7~~--------------------------------------------------|
D-9-----------9-7H9~~-------7-9~~----------------------------------------------------------------------|
A---------------------7-9~~----------------------------------------------------------------------------|
E------------------------------------------------------------------------------------------------------|

E--------------12-10----10----------------------------------7---------------------------|
B-10H12~~---10-------12----12-10-12-10----10~~-7---7-----------10p7---7-----------------|
G--------------------------------------11--------9---9^(11)---------9---9^(11)^(9)-7~~--|
D---------------------------------------------------------------------------------------|
A---------------------------------------------------------------------------------------|
E---------------------------------------------------------------------------------------|

E----------------------------------------------------------------------------------------|
B--------------------------------------------------------------------------10^(12)~~~~~--|
G-------------------------------------------------------------7-8-9-7-8-9----------------|
D-------------------------7-8-9-7-8-9-------------7-8-9-7-8-9----------------------------|
A-------------7-8-9-7-8-9-------------7-8-9-7-8-9----------------------------------------|
E-7-8-9-7-8-9----------------------------------------------------------------------------|
  PM-------------------------------------------------------------------------------------|


Second Solo
E-----------------------------------------------------------------------7----------------------|
B--------------------7-8-7H8P7--------------10-7H10P7--------7--------7---10^(12)^(10)^(12)~~--|
G-9^(11)(11)(11)(11)-----------9(9)^(11)~~------------9^(11)---9^(11)--------------------------|
D----------------------------------------------------------------------------------------------|
A----------------------------------------------------------------------------------------------|
E----------------------------------------------------------------------------------------------|

E-10^(12)(12)^(10)-9-10-9------------7-----------------------------------------------------|
B-------------------------10^(12)~~----10-7H10P7--------7--------7-10P7--------7-----------|
G------------------------------------------------9^(11)---9^(11)--------9^(10)---9P7-9~~~--|
D------------------------------------------------------------------------------------------|
A------------------------------------------------------------------------------------------|
E------------------------------------------------------------------------------------------|

E-----------------------------------------------------------------------------------|
B-----10-7-----10-7-----10-7-----10-7-----10-7-----10-7-----10-7-10-7-----10-7-10-7-|
G-7-9------9-7------9-7------9-7------9-7------9-7------9-7-----------9-7-----------|
D-----------------------------------------------------------------------------------|
A-----------------------------------------------------------------------------------|
E-----------------------------------------------------------------------------------|

E---------------------------------10-7------10-7------10^(12)-10~~~----------------|
B-----10-7-10-7-----10-7-----10-7------10-7------10-7------------------------------|
G-9-7-----------9-7------9-7-------------------------------------------------------|
D----------------------------------------------------------------------------------|
A----------------------------------------------------------------------------------|
E--------------------------------------------------------------------0\------------|
                                                                       \
                                                                        \__


E-12^(14)(14)^(12)-10-12-10^(12)^(10)--------------------------------------------|
B-------------------------------------12-12~~~-10^(12)~~~----12P10P7----12P10P7--|
G---------------------------------------------------------9----------9-----------|
D--------------------------------------------------------------------------------|
A--------------------------------------------------------------------------------|
E--------------------------------------------------------------------------------|

E------------------------------------------------------------------------------|
B---12P10P7----12P10P7----12P10P7-----12----12---12--------------9---7^--------|
G-9---------9----------9----------/11----10----9----9^(10)^(9)---9---7^--------|
D--------------------------------------------------------------9---9----9-7-9--|
A------------------------------------------------------------------------------|
E------------------------------------------------------------------------------|
                             PM    PM   PM   PM--------------------------------|

E----------------------------------------------------------------|
B-----10-----10-----10-----10-----10-----10-----10-----10--------|
G-/11----/11----/11----/11----/11----/11----/11----/11----11/9P7-|
D----------------------------------------------------------------|
A----------------------------------------------------------------|
E----------------------------------------------------------------|

E-------------------------------------------------------------------------------------|
B-------------------------------------7-10P7---7-10P7---7-10P7-12P7-10P7--------------|
G-9^(10)^(9)-7---9^(10)^(9)-7----/7-9--------9--------9------------------9^(10)^(9)P7-|
D--------------9--------------9-------------------------------------------------------|
A-------------------------------------------------------------------------------------|
E-------------------------------------------------------------------------------------|

E----------------------------------------------------------------------------------------------------------|
B-10\/\/\/\/\/\/\/\/\/\/\/\/-7Hv10P77Hv10P77Hv10P77Hv10P77Hv10P77Hv10P77Hv10P77Hv10P77Hv10P77Hv10P77Hv10P7-|
G----------------------------------------------------------------------------------------------------------|
D----------------------------------------------------------------------------------------------------------|
A----------------------------------------------------------------------------------------------------------|
E----------------------------------------------------------------------------------------------------------|

E---------------------------------------------------------------------------------|
B---------------------10\/\/\/\/\/\--10\/\/\/\/\/\/\/----------10/\/\/\/\/\/\/\/--|
G-9\---------------9^(11)-\/\/\/\/\--9^(11)\/\/\/\/\/-----7-9^(11)\/\/\/\/\/\/\/--|
D---\--------------------------------------------------9--------------------------|
A----\----------------------------------------------------------------------------|
E-----\--0------------------------------------------------------------------------|
	  \
	   \
	    \____


E-------10----------12----------16----------18-\-10^(12)^(10)^(12)-7---------7-------------|
B-----9----------11----------15----------17----\---------------------10^(12)---10^(12)~~~--|
G-7/8-------8/10-------10/14-------14/16-------\-------------------------------------------|
D----------------------------------------------\-------------------------------------------|
A----------------------------------------------\-------------------------------------------|
E----------------------------------------------\-------------------------------------------|

E-10TP-12-10-7----12-10-7----12-10-7----12-10-7------------------------------------------------|
B--------------10---------10---------10---------10-7-10-7-----10-7-----10-7-10-7-----10-7-10-7-|
G---------------------------------------------------------9-7------9-7-----------9-7-----------|
D----------------------------------------------------------------------------------------------|
A----------------------------------------------------------------------------------------------|
E----------------------------------------------------------------------------------------------|

E--------------------------------------------------------|--------------------------------------|
B-10-7-----10-7-----10-7-10-7-----10-7-------------------|--------------------------------------|
G------9-7------9-7-----------9-7------9-7---------------|--------------------------------------|
D------------------------------------------7\/\/\/\/\/\/-|-\\\\\\/////\\\\\////\\\/\///\//\/\/--|
A--------------------------------------------------------|--------------------------------------|
E--------------------------------------------------------|--------------------------------------|
							 |DURING THIS AREA JUST SLIDE RANDOMLY-|

E--12-10-7----12-10-7----12-10-7----12-10-7-12^(15)^(12)-12^(15)^(12)-10-----------12^(14)^(12)~~~~---|
B----------10---------10---------10--------------------------------------12-12~~~---------------------|
G-----------------------------------------------------------------------------------------------------|
D-----------------------------------------------------------------------------------------------------|
A-----------------------------------------------------------------------------------------------------|
E-----------------------------------------------------------------------------------------------------|


____________________________________________________________________________________________________________________________________________
____________________________________________________________________________________________________________________________________________
Добавлено: 18.11.2013
Другие материалы по этой песне:

Страница создана 30.05.2012
http://primanota.ru/black-label-society/mafia-chords.htm
Привет, Гость.
Предлагаем пройти революционный курс по гитаре.
Подарок от PrimaNota.Ru, забирай!