PrimaNota.ru - самый крупный в мире бесплатный архив песенных текстов, аккордов, табулатур и нот


Black Keys - The Lenghts - аккорды и текст, видео

Регистрация Запомнить меня
Войти через:  Facebook Google Twitter Vk Yandex Mail.ru

Black Keys - The Lenghts - аккорды и текст, видео

Печатать
Просмотров: 242
The Lenghts
Black Keys
The Lenghts
The Black keys
Capo 6
Tabbed by ILLCOM except the intro
In took from vinnie, thanks for the intro 

Intro
e|-----------------------------------------------|
B|-----------------1-------1------1----1---------|
G|-----0------0----0----0h2--0-0h2--0h2—2p0------|
D|--0h2----0h2--0h2-----3-------------------3----|
A|---------3-------------------------------------|
E|-----------------------------------------------|

e|--------------------------------3--3--3—0-0----|
B|-------------------------1----3/5--5--5—5—3-1--|
G|-----0-------0----0---0h2----------------------|
D|--0h2-----0h2--0h2----3------------------------|
A|--3------3-------------------------------------|
E|-----------------------------------------------|
C                       F
  tell me where you're goin
     C              F
or what is going wrong
C                F
  I felt you leavin 
    C               F
before you'd even gone
C           F
   hold me now
             C           F
or never ever hold me again
C            F
   no more talk
                     C          F
can take me from this pain I'm in 
G     F                   C
               (pain i'm in)


C                       F
  see the moonlight shinin 
C               F
on your window pane
C               F
  see it leave you 
     C              F
as faithful as it came
C             F
  please yourself 
                    C       F
so you don't have to be afraid
C          F
  make amends
              C       F
or carry on another way 
G     F                   C
                (another way)


C                         F
  tell me what you were thinkin
     C            F
to treat somebody so
C              F
  the care he took 
     C                     F
the lengths to which he'd go
C            F
  coals are hot 
               C              F
to walk across without your shoes
C              F
  but in the end
                 C            F
know that you got nothin to lose 
G     F                   C
             (nothin to lose) 

Slide - something like
e|-------------------------------------------|
B|–11/14----16/11-----11-14-11---------------|
G|--------------------------------13/11------|  
D|-------------------------------------------|
A|-------------------------------------------|
E|-------------------------------------------|
Добавлено: 05.05.2012
Другие материалы по этой песне:
  • Аккорды и текст

Страница создана 05.05.2012
http://primanota.ru/black-keys/the-lenghts-chords.htm
Привет, Гость.
Предлагаем пройти революционный курс по гитаре.
Подарок от PrimaNota.Ru, забирай!