PrimaNota.ru - самый крупный в мире бесплатный архив песенных текстов, аккордов, табулатур и нот


Black Keys - Meet Me In The City - таба, видео

Регистрация Запомнить меня
Войти через:  Facebook Google Twitter Vk Yandex Mail.ru

Black Keys - Meet Me In The City - таба, видео

Печатать
Просмотров: 301
------------------------------------------------------------------------
                Meet Me In The City - The Black Keys
------------------------------------------------------------------------
Tabbed by: Ignigknot
Email: Err

Tuning: Standard

e|-----------------------------------2-0-------------------------------|
B|-----------------2-------2-------------2---------------------2-------|
G|-2---------------------------------------4-2--22-4-----2-2-2-2-4/6---|
D|---------------------------------------------4-----4---2-2-4-2-------|
A|-0-0-0-0-0-0-0-0-0-0-0-0-0-0-0-0-0-0-0-0-0-0-0-0-0-0-0-0-0-0---------|
E|---------------------------------------------------------------------|

e|------------2-0------------------------------------------------------|
B|---------2------2----------------------------------------------------|
G|-0-2-2-2-2--------4-2--22-4--------2-4/6-4/2--22-4-------2-----------|
D|-0-2-2-4-2------------4-----4~-2h4-----------4----4~~-2h4-4----------|
A|-0-0-0-0-------------------------------------------------------------|
E|---------------------------------------------------------------------|

e|---------------------------------------------------------------------|
B|--------2--------------2-----2--------------5/7-5--------------------|
G|--2-2-2-2-4/6--0-2-2-2-2-2h4-2--------------------4/6-4-2------4/6---|
D|--2-2-4-2------0-2-2-4-2-----0----------------------------4p3p2------|
A|--0-0-0--------0-0-0-0-----------------------------------------------|
E|---------------------------------------------------------------------|

e|---------------------------------------------------------------------|
B|--5/7-5-------------------5/7-5--------------------------------------|
G|--------4/6-4-2-2/4-------------4/6-4-2h4--------2--------4-4p2-2----|
D|--------------------4/2-------------------4~~-2h4-4------------4-----|
A|---------------------------------------------------------------------|
E|---------------------------------------------------------------------|

e|---------------------------------------------------------------------|
B|--5/7-5--------------------------------------------------------------|
G|-------4/6-4-2h4-4p2---2-4/6~~--6/4-2h4------------------------------|
D|---------------------4------------------4----------------------------|
A|---------------------------------------------------------------------|
E|---------------------------------------------------------------------|

e|---------------------------------------------------------------------|
B|---5/7-3-3/5~~--5/7--5/7-5-------------------------------------------|
G|--------------------------4/6-4-2h4-4p2---2-4/6~~--6/4-2h4-----------|
D|----------------------------------------4------------------4---------|
A|------------------------------------------------------------0-0-0-0--|
E|---------------------------------------------------------------------|

e|---------------------------------------------------------------------|
B|---------------------------------------------------------------------|
G|----2----------------------------------------------------------------|
D|-2h4-4---------------------------------------------------------------|
A|---------------------------------------------------------------------|
E|---------------------------------------------------------------------|

This is not an actual note for note representation of the song.  

| /   slide up
| \   slide down
| h   hammer-on
| p   pull-off
| ~   vibrato
| +   harmonic
| x   Mute note
| b   Bend
| pb  Pre-bend
| br  Bend release
| pbr Pre-bend release
| brb Bend release bend

************************************

Добавлено: 24.03.2012
Другие материалы по этой песне:
  • Аккорды и текст

Страница создана 24.03.2012
http://primanota.ru/black-keys/meet-me-in-the-city-chords.htm
Привет, Гость.
Предлагаем пройти революционный курс по гитаре.
Подарок от PrimaNota.Ru, забирай!