PrimaNota.ru - самый крупный в мире бесплатный архив песенных текстов, аккордов, табулатур и нот


Black Keys - The Flame - таба, видео

Регистрация Запомнить меня
Войти через:  Facebook Google Twitter Vk Yandex Mail.ru

Black Keys - The Flame - таба, видео

Печатать
Просмотров: 547
Уроки эстрадного вокала в Санкт-Петербурге
Авторы: The Black Keys

The black keys - The flame(intro)

Riff:
|-----------------------------------------------------|
|-----------------------------------------------------|
|------------5---5--- (7)-(5)-------------------------|
|---5---5/7------------------(7)----5-7---7-------5---|
|-7-------------------------------7-----------5/7-----|
|-----------------------------------------------------|
Riff first variation:
|---------------------------------------------------------|
|---------------------------------------------------------|
|-------------5--5—(7)(7)-(5)-----------------------------|
|-(5)---5-7---------------------(7)(5)---5-7--7-------5---|
|--------------------------------------7----------7/5-----|
|---------------------------------------------------------|
Riff second variation:
|-----------------------------------------------------|
|-------------------(8)^------------------------------|
|-------------5-5---------(5)-------------------------|
|-(5)---5-7------------------(7)----5-7-----------5---|
|--------------------------------7-----------7/5------|
|-----------------------------------------------------|

Es mi primer tab publicado lo hice sin tener una guitarra al lado, disfruten.
inciensosativo@ hotmail.com
Добавлено: 24.03.2012
Другие материалы по этой песне:
  • Аккорды и текст

Страница создана 24.03.2012
http://primanota.ru/black-keys/the-flame-chords.htm
Привет, Гость.
Предлагаем пройти революционный курс по гитаре.
Подарок от PrimaNota.Ru, забирай!