PrimaNota.ru - самый крупный в мире бесплатный архив песенных текстов, аккордов, табулатур и нот


Black Keys - Them Eyes - текст песни, таба, видео

Регистрация Запомнить меня
Войти через:  Facebook Google Twitter Vk Yandex Mail.ru

Black Keys - Them Eyes - текст песни, таба, видео

Печатать
Просмотров: 252
THE BLACK KEYS

Them Eyes

Key

 b : Bend
 r : Release
 / : Slide into
 \ : Slide out of
 h : Hammer on
 p : Pull off
(-): Ghost note
 ~ : Vibrato
 x : Mute
 u : Up stroke
 d : Down stroke
 T : Fret with thumb
 . : Staccato 


Intro

With tremolo. Let ring, but mute the 3rd fret of B string with pinky 
when you reach to grab the 5th fret of the G string. 

e|------------------|------------------------|
B|------------------|---5----------3---------|
G|------------------|-----------2-------5----|
D|----------------3/|5-------4---------------|
A|------------------|------------------------|
E|------------------|------------------------|
                                     (etc...)

_____________________________________________________________________________


Chorus


e|3----3----x-1----1----x|--------------------3-----|
B|3----3----x-1----1----x|1--1--2--3----------3-----|
G|4----4----x-2----2----x|3--3--4--5----5b7------0--|
D|5----5----x-3----3----x|2--2--3--4----------------|
A|5----5----x-3----3----x|3--3--4--5----------------|
E|3----3----x-1----1----x|--------------------------|



e|3----3----x-1----1----x|----------------3---------|
B|3----3----x-1----1----x|1--1--2--3----6p3---6--0--|
G|4----4----x-2----2----x|3--3--4--5-------------0--|
D|5----5----x-3----3----x|2--2--3--4----------------|
A|5----5----x-3----3----x|3--3--4--5----------------|
E|3----3----x-1----1----x|--------------------------|



e|3----3----x-1----1----x|--------------------3-----|
B|3----3----x-1----1----x|1--1--2--3----3-----3-----|
G|4----4----x-2----2----x|3--3--4--5----5b7------0--|
D|5----5----x-3----3----x|2--2--3--4----------------|
A|5----5----x-3----3----x|3--3--4--5----------------|
E|3----3----x-1----1----x|--------------------------|
                                       


e|3----3----x-1----1----x|------------------------|
B|3----3----x-1----1----x|1--1--2--3----3----2----|
G|4----4----x-2----2----x|3--3--4--5----5----4----|
D|5----5----x-3----3----x|2--2--3--4----4----3----|
A|5----5----x-3----3----x|3--3--4--5----5----4----|
E|3----3----x-1----1----x|------------------------|


_____________________________________________________________________________


Verse


e|-----------------------|-----------------------|
B|-----1-----------1-----|------1-----------1----|
G|-----3-----------3-----|------3-----------3----|
D|-----2-----------2-----|------2-----------2----|
A|3----------1--3--------|1--3--------1--3-------|
E|--------3-----------3--|---------3-------------|
       .           .            .           . 


e|-----3----x--3--3-------|-----4----x--4--4--------|
B|-----6----x--5--6-------|-----6----x--5--5--------|
G|-----4----x--4--4-------|-----4----x--4--4--0-----|
D|-----3----x--3--3-------|-----3----x--3--3--0-----|
A|-----5----x--5--5-------|-----5----x--5--5--0-----|
E|3--------------------0--|3---------------------3--|
                                              .

_____________________________________________________________________________

Bridge



e|5--5--5--5--5--5--5----|5--5--5--5--5--5--5-----|3--3--3-----5--5--5-----|
B|8--8--8--8--8--8--8----|5--5--5--5--5--5--5-----|3--3--3--0--5--5--5--0--|
G|6--6--6--6--6--6--6----|5--5--5--5--5--5--5--0--|4--4--4--0--5--5--5--0--|
D|5--5--5--5--5--5--5----|4--4--4--4--4--4--4--0--|5--5--5--0--4--4--4--0--|
A|7--7--7--7--7--7--7----|5--5--5--5--5--5--5--0--|5--5--5-----5--5--5-----|
E|5--5--5--5--5--5--5----|------------------------|3--3--3-----------------|


e|3-------------------|
B|3-------------------|
G|4-------------------|
D|5-------------------|
A|5-------------------|
E|3----3----5----6----|
                                               

_____________________________________________________________________________

Verse II


e|7-----------7-----7-----|------7----------7----|
B|10----------10----10----|------10---------10---|
G|8-----------8-----8-----|------8----------8----|
D|7-----------7-----7-----|------7----------7----|
A|9-----------9-----9-----|------9----------9----|
E|7--7--7--7--7--7--7--7--|7--7--7----7--7--7----|
  .           .                  .          .


e|-----------------------|------------------------|
B|-----5-----------5-----|------5-----------5-----|
G|-----7-----------7-----|------7-----------7-----|
D|-----6--0--------6--0--|------6-----------6-----|
A|7----------7--7--7-----|7--7--7-----7--7--7--7--|
E|-----------------------|------------------------|
       .           .            .           .  


e|-----5-----------5-----|-----5-----------5----|
B|-----5-----------5-----|-----5-----------5----|
G|-----6-----------6-----|-----6-----------6----|
D|-----5-----------5-----|-----5-----------5----|
A|-----7-----------7-----|-----7-----------7----|
E|5-------0--5--5-----0--|5-------0--5--5-------|
       .           .           .           .                             


e|------------------------|--------------------|
B|3--3--3--3--3--3--3--3--|3----x----x----x----|
G|5--5--5--5--5--5--5--5--|5----x----x----x----|
D|4--4--4--4--4--4--4--4--|4----x----x----x----|
A|5--5--5--5--5--5--5--5--|5----x----x----x----|
E|------------------------|--------------------|
                           . 

_____________________________________________________________________________

Breakdown


e|3-----------3---3----|
B|3----6b8------6p3----|
G|4--------------------|
D|5--------------------|
A|5--------------------|
E|3--------------------|
                (etc...)
                                                 
Добавлено: 14.06.2012
Другие материалы по этой песне:

Страница создана 12.03.2012
http://primanota.ru/black-keys/them-eyes-chords.htm
Привет, Гость.
Предлагаем пройти революционный курс по гитаре.
Подарок от PrimaNota.Ru, забирай!