PrimaNota.ru - самый крупный в мире бесплатный архив песенных текстов, аккордов, табулатур и нот


Black Keys - Strange Desire - таба, видео

Регистрация Запомнить меня
Войти через:  Facebook Google Twitter Vk Yandex Mail.ru

Black Keys - Strange Desire - таба, видео

Печатать
Просмотров: 406
Авторы: The Black Keys

-------------------------------------------------------------------------------
                            Strange Desire - The Black Keys
-------------------------------------------------------------------------------
Tabbed by: Dylan
Email: odin13@rock.com

Tuning: Standard (E A D G B e)

There aren't to many black keys tabs and as soon as i heard the new album i tabbed it, 
about the solos though, cheers!

INTRO:
e|-------------------------------------|
B|-------------------------------------|
G|-------------------------------------|
D|-5--7-7--x-x-x-x-x-x-x-x-x-x-x-x-----|  (3 times)
A|-5--7-7--x-x-x-x-x-x-x-x-x-x-x-x-----|
E|-3--5-5--x-x-x-x-x-x-x-x-x-x-x-x-----|

VERSE:
e|------------------------------------------------------------------------|
B|------------------------------------------------------------------------|
G|---------------5--7-7-x-x-x-x-x-x--7-7-x-x-x-x--5-----------------------|
D|-7-7--x-x-x-x--5--7-7-x-x-x-x-x-x--7-7-x-x-x-x--5-7-7--x-x-x-x-x-x------| (5 times)
A|-7-7--x-x-x-x--3--5-5-x-x-x-x-x-x--5-5-x-x-x-x--3-7-7--x-x-x-x-x-x------|
E|-5-5--x-x-x-x---------------------------------------5-5--x-x-x-x-x-x----|
                                *No muting on last time*

{THERES MEANT TO BE A SOLO HERE, BUT I CAN'T BE BOTHERED TABBING IT}

                                           ****Play verse again****

{AGAIN, MEANT TO BE A SOLO}

If you have any corrections, or the solo, feel free to email me! Peace out, Dylan.
| /  slide up
| \  slide down
| h  hammer-on
| p  pull-off
| ~  vibrato
| +  harmonic
| x  Mute note
===============================================================================
Добавлено: 10.03.2012
Другие материалы по этой песне:

Страница создана 10.03.2012
http://primanota.ru/black-keys/strange-desire-chords.htm
Привет, Гость.
Предлагаем пройти революционный курс по гитаре.
Подарок от PrimaNota.Ru, забирай!