PrimaNota.ru - самый крупный в мире бесплатный архив песенных текстов, аккордов, табулатур и нот


Black Keys - Lengths - текст песни, таба, видео

Регистрация Запомнить меня
Войти через:  Facebook Google Twitter Vk Yandex Mail.ru

Black Keys - Lengths - текст песни, таба, видео

Печатать
Просмотров: 354
----------------------------------------------------------------------------			
                        The Lengths - Black Keys
----------------------------------------------------------------------------
Tabbed by:   Vinnie
Email: n_winwood@hotmail.com

Tuning:    Standard EADGBE
Capo on 6th

Intro

e	|-----------------------------------------------|
B	|-----------------1-------1------1----1---------|
G	|-----0------0----0----0h2--0-0h2--0h2—2p0------|
D	|--0h2----0h2--0h2-----3-------------------3----|
A	|---------3-------------------------------------|
E	|-----------------------------------------------|

e	|--------------------------------3--3--3—0-0----|
B	|-------------------------1----3/5--5--5—5—3-1--|
G	|-----0-------0----0---0h2----------------------|
D	|--0h2-----0h2--0h2----3------------------------|
A	|--3------3-------------------------------------|
E	|-----------------------------------------------|

Verse
		C			     F

e	|----0-----0---0----------0--3p0--------0-------|
B	|----1—1h3--1h3--3p1----1-------1-1h3---3—1-----|
G	|---0-----------------2-------------------------|   Repeat
D	|--------------------3--------------------------|
A	|--3--------------------------------------------|
E	|-----------------------------------------------|


Bridge  ("Pain I'm in")

e	|---3----------3----0-----|
B	|---3----------3----1-----|
G	|---4----------4----2-----|	
D	|---6----------6----3-----|
A	|---5----------5----0-----|
E	|---3----------3----------|

| h  hammer-on
| p  pull-off
Добавлено: 22.04.2012
Другие материалы по этой песне:
  • Аккорды и текст

Страница создана 18.04.2012
http://primanota.ru/black-keys/lengths-chords.htm
Привет, Гость.
Предлагаем пройти революционный курс по гитаре.
Подарок от PrimaNota.Ru, забирай!