PrimaNota.ru - самый крупный в мире бесплатный архив песенных текстов, аккордов, табулатур и нот


Black Keys - Hold Me In Your Arms - аккорды и текст, таба, видео

Регистрация Запомнить меня
Войти через:  Facebook Google Twitter Vk Yandex Mail.ru

Black Keys - Hold Me In Your Arms - аккорды и текст, таба, видео

Печатать
Просмотров: 382
Авторы музыки: The Black Keys

Hold Me In Your Arms
Black Keys
Tuning: drop D
Intro:
All slide
e|--1s3---1s3s1----1s3---7s0-------------------------------------------------|
B|------3--------3-----------1s3--1s3----------------------------------------|
G|-------------------------------------3s2-----------------------------------|
D|-----------------------------------------0--1s3----------------------------|
A|-------------------------------------------------3s5-----------------------|
D|---------------------------------------------------------------------------|

Main riff:                Verse filler:
e|-----------------------|-----------------------------|
B|---3-------------------|-----------------------------|
G|-----------------------|------------0----------------|
D|-----5p4-0-----0-------|--------------0--------------|
A|------------------s5---|--2-2-0----------2-2-0-------|
D|-0---------3b----(s5)--|---------3--------------3--3-|

Chorus              bridge:     Ender:
e|-----------------|-----------|--------|
B|-----------------|-----------|--------|
G|-----------------|-----------|--------|
D|-s3-0--s5--s3-s3-|-s5-s8-s10-|--s12---|
A|-s3-0--s5--s3-s3-|-s5-s8-s10-|--s12---|
D|-s3-0--s5--s3-s3-|-s5-s8-s10-|--s12---|
Добавлено: 21.08.2015
Другие материалы по этой песне:
  • Аккорды и текст

Страница создана 05.03.2012
http://primanota.ru/black-keys/hold-me-in-your-arms-chords.htm
Привет, Гость.
Предлагаем пройти революционный курс по гитаре.
Подарок от PrimaNota.Ru, забирай!