PrimaNota.ru - самый крупный в мире бесплатный архив песенных текстов, аккордов, табулатур и нот


Billy Talent - Square Root Of Me - текст песни, таба, видео

Регистрация Запомнить меня
Войти через:  Facebook Google Twitter Vk Yandex Mail.ru

Billy Talent - Square Root Of Me - текст песни, таба, видео

Печатать
Просмотров: 221
Song:    Square Root of Me
Artist:  Pezz
Album:   Watoosh!

Tabber:  Andrew (Hyperandy)
Age:     14
Email:   hyperandy@hotmail.com
Tab #:   1

This is my number one favourite pezz song

Pezz is Billy Talents former band name,
under which they released the album Watoosh!

I figured it out on my own, Its not as hard as it looks.

I have a band in Alberta.

Enjoy!


Intro/ Chorus (The riff pretty much is the chorus)

e|-----1--53--1-3-10-5-5--1111-44-33-xx-3333--|
b|---1----33--3-3-30-5-5--2222-44-33-xx-3333--|
g|-2------33--2-2-20-5-5--1111-55-33-xx-3333--|
d|--------------------------------------------|
a|--------------------------------------------|
E|--------------------------------------------|

e|-----1--53--1-3-10-5-5--1111-44-3--|
b|---1----33--3-3-30-5-5--2222-44-3--|
g|-2------33--2-2-20-5-5--1111-55-3--|
d|-----------------------------------|
a|-----------------------------------|
E|-----------------------------------|


Verse (Palm Mute)

e|---------------|
b|-----6------5--|
g|-----5------5--|
d|-3-3-----------|
a|--------3-3----|
E|---------------|
Play for entire verse untill the change


Verse to prechorus transition

e|--------------------------|
b|-----6------5-----6----5--|
g|-----5------5----5-5---5--|
d|-3-3------------3-----5-5-|
a|--------3-3----------3----|
E|--------------------------|
                        Because your

Prechorus
                                   X3
e|--------------------8-8-------------|--------8-6-5-3-55--------|
b|--------------------5-5-------------|--------5-5-5-3-55--------|
g|--------------------5-5-------------|--------5-5-5-3-55--------|
d|--7----8----3--3--------------------|--7-8-5-------------------|
a|--7----8----3--3--------------------|--7-8-5-------------------|
E|--5----6----5--5----------1-3-1-3-1-|--5-6-3-------------------|
   Dis- Re- specting  Me                (Same speed as previous 3)

Transition to Outro

e|------------------|
b|-----5-------6----|
g|---5---5---5---5--|
d|---------3--------|
a|-3----------------|
E|------------------|

The rest of the song is:
(PM)

Outro
e|-----------------------------------------------|
b|-----5----5-----6-----6-----6-----6--55555555--|
g|-----5----5-----5-----5-----5-----5--55555555--|
d|------------3-3---3-3---3-3---3-3----xxxxxxxx--|
a|-3-3---3-3---------------------------33333333--|
E|-----------------------------------------------|

Except for the solo, which has the same structure though,
so go ahead and figure it out.

The song sound more correct with the bass (tab coming soon)
I believe that this tab is at least 99% correct. Most of what
you hear towards the end of the song is bass.guitar is a
little drowned out.

Song Order:

Intro/chorus
Verse
Prechorus
Intro/Chorus
Verse
Prechorus
Intro/Chorus
transition to outro
Outro part
Solo
Outro Part
Outro (Heavy Distortion)

Very fun to play
Добавлено: 25.04.2012
Другие материалы по этой песне:
  • Аккорды и текст

Страница создана 25.04.2012
http://primanota.ru/billy-talent/square-root-of-me-chords.htm
Привет, Гость.
Предлагаем пройти революционный курс по гитаре.
Подарок от PrimaNota.Ru, забирай!