PrimaNota.ru - самый крупный в мире бесплатный архив песенных текстов, аккордов, табулатур и нот


Billy Talent - Cut The Curtain - аккорды и текст, видео

Регистрация Запомнить меня
Войти через:  Facebook Google Twitter Vk Yandex Mail.ru

Billy Talent - Cut The Curtain - аккорды и текст, видео

Печатать
Просмотров: 201
Cut The Curtain
Billy Talent
Tabbed by: ME!
Email: halfpipe_182babe@hotmail.com

Tuning: Drop D Tuning! 

Well.. here's Cut the Curtains.. It's kind of confusing at first, but it's
really fun once you get the hang of it. If you're confused and arn't sure about
something, just e-mail me.

Intro

e|------------------|---------------------------------------------------------|
B|------------------|---------------------------------------------------------|
G|------------------|---------------------------------------------------------|
D|------------------|---------------------------------------------------------|
A|-00/7--00/7--0/7--|-55/7--33/5----------------------------------------------|
D|-00/7--00/7--0/7--|-55/7--33/5----------------------------------------------|

e|---------------------------------------------------------------------------|
B|---------------------8-------6---------------------------------------------|
G|---------------------7-------5---------------------------------------------|
D|---------------------5-------3---------------------------------------------|
A|-00/7--00/7--0/7--55-5-5--33-3-3-------------------------------------------|
D|-00/7--00/7--0/7--55-5-5--33-3-3-------------------------------------------|

Verse

e|---------------------------------------------------------------------------|
B|---------------------------------------------------------------------------|
G|---------------------------------------------------------------------------|
D|----------------2-3-2------------------------------------------------------|
A|--5-3-5-3-------------1-3--------------------------------------------------|
D|-0--------7-6-5------------------------------------------------------------|

sometimes the verse sounds a bitch more high pitched... when it sounds like that, do this:

e|---------------------------------------------------------------------------|
B|---------------------------------------------------------------------------|
G|---7-5-7-5-------2-3-2-----------------------------------------------------|
D|-----------7-6-5-------2-3-------------------------------------------------|
A|-5-------------------------------------------------------------------------|
D|---------------------------------------------------------------------------|

After the chorus

e|---------------------------------------------------------------------------|
B|--------------------8-----6------------------------------------------------|
G|--------------------7-----5------------------------------------------------|
D|--------------------5-----3------------------------------------------------|
A|---5-3-5-3-------55-5-5--33-3----------------------------------------------|
D|-0---------7-6-5-55-5-5--33-3-0--------------------------------------------|

e|---------------------------------------------------------------------------|
B|---------------------------------------------------------------------------|
G|---------------------------------------------------------------------------|
D|---------------------------------------------------------------------------|
A|-00/7--00/7--0/7--55--3--5--77--5--3---------------------------------------|
D|-00/7--00/7--0/7--55--3--5--77--5--3---------------------------------------|

Those are all the parts used in the song, it's pretty easy to figure out what
goes where. Now here's the best part!! 

Solo

e|---------------------------------------------------------------------------|
B|----------10---------------------------------------------------------------|
G|-10----10----10--------9-9b-9-----------------7----------------------------|
D|----12----------12--12--------12-10-12--7---7---7--------------------------|
A|------------------------------------------8-------8------------------------|
D|---------------------------------------------------------------------------|

e|---------------------------------------------------------------------------|
B|------------------------------------3---3---3--33--66----------------------|
G|-7-9-9b-9-7-5-----------------3---2---2---2----33--77----------------------|
D|--------------7-5-3-2-5-3-2-3----------------------------------------------|
A|---------------------------------------------------------------------------|
D|---------------------------------------------------------------------------|

e|---------------------------------------------------------------------------|
B|----------10---------------------------------------------------------------|
G|-10----10----10--------9-9b-9-----------------7----------------------------|
D|----12----------12--12--------12-10-12--7---7---7--------------------------|
A|------------------------------------------8-------8------------------------|
D|---------------------------------------------------------------------------|

e|---------------------------------------------------------------------------|
B|-----------------------------------3---3---3-8-8--66-----------------------|
G|-7-9-9b-9-7-5-----------------3--2---2---2---7-7--55-----------------------|
D|--------------7-5-3-2-5-3-2-3----------------5-5--33-----------------------|
A|---------------------------------------------5-5--33-----------------------|
D|---------------------------------------------5-5--33-----------------------|

Alrite, That's all! Enjoy

| b  bend 
| /  slide up
|   slide down
| h  hammer-on
| p  pull-off
| ~  vibrato
| +  harmonic
| x  Mute note

===============================================================================
Добавлено: 02.07.2012
Другие материалы по этой песне:
  • Аккорды и текст

Страница создана 02.07.2012
http://primanota.ru/billy-talent/cut-the-curtain-chords.htm
Привет, Гость.
Предлагаем пройти революционный курс по гитаре.
Подарок от PrimaNota.Ru, забирай!