PrimaNota.ru - самый крупный в мире бесплатный архив песенных текстов, аккордов, табулатур и нот


Billy Talent - Warmth Of Windows - текст песни, таба, бас-таба, видео

Регистрация Запомнить меня
Войти через:  Facebook Google Twitter Vk Yandex Mail.ru

Billy Talent - Warmth Of Windows - текст песни, таба, бас-таба, видео

Печатать
Просмотров: 220
-------------------------------------------------------------------------
                     WARMTH OF WINDOWS - Billy Talent
-------------------------------------------------------------------------
Tabbed by ... Mark M
Email     ... billytalentpunk0@hotmail.com

Tuning    ... Standard Tuning (EADGBe)

This is a cool song by Billy Talent when they were called Pezz...I know
it sounds bit weird but I like it...especially the funny bridge...
anyways enjoy...


INTRO:

    P.M.---------------------------     P.M.---------------   
e|---------------------------------------------------------------------|
B|----------------------------------6-----6-----6-----6-----6----------|
G|----------------------------------6-------6-----6-----6-----6---(6)--|
D|--4-4-4-4-4-4-4-4-6-6-6-6-8-8-8-8-4---4-----4-----4-----4-----4------|
A|--1-1-1-1-2-2-2-2-4-4-4-4-6-6-6-6------------------------------------|
E|---------------------------------------------------------------------|

    P.M.---------------------------     P.M.---------------
e|---------------------------------------------------------------------|
B|----------------------------------6-----6-----6-----6-----6-6--------|
G|----------------------------------6-------6-----6-----6---6-6--------|
D|--4-4-4-4-4-4-4-4-6-6-6-6-8-8-8-8-4---4-----4-----4-----4-4-4--------|
A|--1-1-1-1-2-2-2-2-4-4-4-4-6-6-6-6------------------------------------|
E|---------------------------------------------------------------------|

                                                                     x2
e|----------------------------------6-6-6-6-6-6-6-6-6-6-6-6-6-6-6-6----|
B|----------------------------------6-6-6-6-6-6-6-6-6-6-6-6-6-6-6-6----|
G|----------------------------------6-6-6-6-6-6-6-6-6-6-6-6-6-6-6-6----|
D|--4-4-4-4-4-4-4-4-6-6-6-6-8-8-8-8-4-4-4-4-4-4-4-4-4-4-4-4-4-4-4-4----|
A|--1-1-1-1-2-2-2-2-4-4-4-4-6-6-6-6------------------------------------|
E|---------------------------------------------------------------------|


VERSE:

    P.M.---------------------------                                  x3
e|---------------------------------------------------------------------|
B|---------------------------------------------------------------------|
G|--------------------------------------6-6-------------6-6------------|
D|--4-4-4-4-4-4-4-4-6-6-6-6-8-8-8-8-4-4-----4-4-----4-4-----4-4--------|
A|--1-1-1-1-2-2-2-2-4-4-4-4-6-6-6-6-------------4-4-------------4-4----|
E|---------------------------------------------------------------------|

    P.M.---------------------------
e|----------------------------------6-6-6-6-6-6-6-6-6-6-6-6-6-6-6-6----|
B|----------------------------------6-6-6-6-6-6-6-6-6-6-6-6-6-6-6-6----|
G|----------------------------------6-6-6-6-6-6-6-6-6-6-6-6-6-6-6-6----|
D|--4-4-4-4-4-4-4-4-6-6-6-6-8-8-8-8-4-4-4-4-4-4-4-4-4-4-4-4-4-4-4-4----|
A|--1-1-1-1-2-2-2-2-4-4-4-4-6-6-6-6------------------------------------|
E|---------------------------------------------------------------------|


CHORUS:
                                                                     x4
e|---------------------------------------------------------------------|
B|---------------------------------------------------------------------|
G|------------------------------------------8-8-8-8---------6-6-6-6----|
D|--3/4-4-4-4/6-6-6-6/8-8-8-8/9-9-9-8-8-8-8-8-8-8-8-6-6-6-6-6-6-6-6----|
A|--3/4-4-4-4/6-6-6-6/8-8-8-8/9-9-9-8-8-8-8-6-6-6-6-6-6-6-6-4-4-4-4----|
E|--1/2-2-2-2/4-4-4-4/6-6-6-6/7-7-7-6-6-6-6---------4-4-4-4------------|


INTERLUDE:

    P.M.---------- ----------------
e|----------------------------------6-6-6-6-6-6-6-6-6-6-6-6-6-6-6-6----|
B|----------------------------------6-6-6-6-6-6-6-6-6-6-6-6-6-6-6-6----|
G|----------------------------------6-6-6-6-6-6-6-6-6-6-6-6-6-6-6-6----|
D|--4-4-4-4-4-4-4-4-6-6-6-6-8-8-8-8-4-4-4-4-4-4-4-4-4-4-4-4-4-4-4-4----|
A|--1-1-1-1-2-2-2-2-4-4-4-4-6-6-6-6------------------------------------|
E|---------------------------------------------------------------------|


VERSE:

    P.M.---------------------------                                  x3
e|---------------------------------------------------------------------|
B|---------------------------------------------------------------------|
G|--------------------------------------6-6-------------6-6------------|
D|--4-4-4-4-4-4-4-4-6-6-6-6-8-8-8-8-4-4-----4-4-----4-4-----4-4--------|
A|--1-1-1-1-2-2-2-2-4-4-4-4-6-6-6-6-------------4-4-------------4-4----|
E|---------------------------------------------------------------------|

    P.M.---------------------------
e|----------------------------------6-6-6-6-6-6-6-6-6-6-6-6-6-6-6-6----|
B|----------------------------------6-6-6-6-6-6-6-6-6-6-6-6-6-6-6-6----|
G|----------------------------------6-6-6-6-6-6-6-6-6-6-6-6-6-6-6-6----|
D|--4-4-4-4-4-4-4-4-6-6-6-6-8-8-8-8-4-4-4-4-4-4-4-4-4-4-4-4-4-4-4-4----|
A|--1-1-1-1-2-2-2-2-4-4-4-4-6-6-6-6------------------------------------|
E|---------------------------------------------------------------------|


CHORUS:
                                                                     x4
e|---------------------------------------------------------------------|
B|---------------------------------------------------------------------|
G|------------------------------------------8-8-8-8---------6-6-6-6----|
D|--3/4-4-4-4/6-6-6-6/8-8-8-8/9-9-9-8-8-8-8-8-8-8-8-6-6-6-6-6-6-6-6----|
A|--3/4-4-4-4/6-6-6-6/8-8-8-8/9-9-9-8-8-8-8-6-6-6-6-6-6-6-6-4-4-4-4----|
E|--1/2-2-2-2/4-4-4-4/6-6-6-6/7-7-7-6-6-6-6---------4-4-4-4------------|


BRIDGE:

    P.M.       P.M.    P.M.    P.M.    P.M.    P.M.     P.M.         x8
e|-----------------6---------------7-------5---------9------------2----|
B|--------11-------6-------7-------7-------5---------9----------2------|
G|--------11-------6-------8-------8-------6---------10-------3--------|
D|--11-11-11-------8---8-8-8-------9-------7---------11-----4----------|
A|--9--9--9----8-8-8---6-6-6---9-9-9---7-7-7---11-11-11---4------------|
E|-------------6-6-6-----------7-7-7---5-5-5---9--9--9----2------------|

                                                                           x4
e|--------------6-6-6-6---------7-7-7-7-5-5-5-5-9--9--9--9--2-2-2-2-2-2-2-2--|
B|--11-11-11-11-6-6-6-6-7-7-7-7-7-7-7-7-5-5-5-5-9--9--9--9--2-2-2-2-2-2-2-2--|
G|--11-11-11-11-6-6-6-6-8-8-8-8-8-8-8-8-6-6-6-6-10-10-10-10-3-3-3-3-3-3-3-3--|
D|--11-11-11-11-8-8-8-8-8-8-8-8-9-9-9-9-7-7-7-7-11-11-11-11-4-4-4-4-4-4-4-4--|
A|--9--9--9--9--8-8-8-8-6-6-6-6-9-9-9-9-7-7-7-7-11-11-11-11-4-4-4-4-4-4-4-4--|
E|--------------6-6-6-6---------7-7-7-7-5-5-5-5-9--9--9--9--2-2-2-2-2-2-2-2--|


CHORUS:
                                                                     x4
e|---------------------------------------------------------------------|
B|---------------------------------------------------------------------|
G|------------------------------------------8-8-8-8---------6-6-6-6----|
D|--3/4-4-4-4/6-6-6-6/8-8-8-8/9-9-9-8-8-8-8-8-8-8-8-6-6-6-6-6-6-6-6----|
A|--3/4-4-4-4/6-6-6-6/8-8-8-8/9-9-9-8-8-8-8-6-6-6-6-6-6-6-6-4-4-4-4----|
E|--1/2-2-2-2/4-4-4-4/6-6-6-6/7-7-7-6-6-6-6---------4-4-4-4------------|


LITTLE OUTRO THING:

e|--------------------|
B|--------------------|
G|--------------------|
D|--5---4-------------|
A|---------5----4-----|
E|-----------------2--|


| () optional note
| /  slide up
| \  slide down
=========================================================================
Добавлено: 19.04.2012
Другие материалы по этой песне:
  • Аккорды и текст

Страница создана 14.04.2012
http://primanota.ru/billy-talent/warmth-of-windows-chords.htm
Привет, Гость.
Предлагаем пройти революционный курс по гитаре.
Подарок от PrimaNota.Ru, забирай!