PrimaNota.ru - самый крупный в мире бесплатный архив песенных текстов, аккордов, табулатур и нот


Biffy Clyro - The Conversation Is - текст песни, таба, видео

Регистрация Запомнить меня
Войти через:  Facebook Google Twitter Vk Yandex Mail.ru

Biffy Clyro - The Conversation Is - текст песни, таба, видео

Печатать
Просмотров: 191
-------------------------------------------------------------------------------
                             The Conversation Is - Biffy Clyro
-------------------------------------------------------------------------------
Tabbed by:slurms
Email:euan-tk@hotmail.com

Tuning:CFDGCF is right!!


Intro
F|---------------------------------------------------------------------------|
C|---------------------------------------------------------------------------|
G|-----------------------3-3-3-3-3-3-3-3-3-3---------------------------------|
D|-4-4-4-4-4-4-4-4-4-4---3-3-3-3-3-3-3-3-3-3------x2-------------------------|
F|-4-4-4-4-4-4-4-4-4-4---5-5-5-5-5-5-5-5-5-5---------------------------------|
C|-2-2-2-2-2-2-2-2-2-2-------------------------------------------------------|







Verse
F|-7--7---------------7--7--|
C|-5--5---------------5--5--|
G|-5--5---------------5--5--|
D|-0--0-strum chords--5--5--|
F|------and-fingerpick------|
C|-------randomly-----------






Pre-Chorus
F|-----------------------------------------------------------------------------------|
C|-----------------------------------------------------------------------------------|
G|-----------------------------------------------------------------------------5-----|
D|-----------------------------------------------------------------------------5-----|
F|-9-9-7-9--7--9--7--9\7-----5-5-4-5--4--5--4-5\4------------------------------7-----|
C|---------------------------------------------------9-9-7-9--7--9--7--9\7---strum---|






Chorus
F|------------------------------------------------------------------------------------|
C|------------------------------------------------------------------------------------|
G|-----------------------------------7-7-7-7-7-7-7-7---8--8--8--8--8--8--8--8---------|
D|-7-7-7-7-7-7-7-7--5-5-5-5-5-5-5-5--7-7-7-7-7-7-7-7---8--8--8--8--8--8--8--8---------|
F|-7-7-7-7-7-7-7-7--5-5-5-5-5-5-5-5--9-9-9-9-9-9-9-9--10-10-10-10-10-10-10-10---------|
C|-5-5-5-5-5-5-5-5--5-5-5-5-5-5-5-5---------------------------------------------------|

F|-----------------------------------------------------|
C|-----------------------------------------------------|
G|-----------------------------------3-3-3-3-3-3-3-3---|
D|-7-7-7-7-7-7-7-7--5-5-5-5-5-5-5-5--5-5-5-5-5-5-5-5---|
F|-7-7-7-7-7-7-7-7--5-5-5-5-5-5-5-5--5-5-5-5-5-5-5-5---|
C|-5-5-5-5-5-5-5-5--5-5-5-5-5-5-5-5--3-3-3-3-3-3-3-3---|





Verse
F|-7--7---------------7--7--|
C|-5--5---------------5--5--|
G|-5--5---------------5--5--|
D|-0--0-strum chords--5--5--|
F|------and-fingerpick------|
C|-------randomly-----------






Pre-Chorus
F|-----------------------------------------------------------------------------------|
C|-----------------------------------------------------------------------------------|
G|-----------------------------------------------------------------------------5-----|
D|-----------------------------------------------------------------------------5-----|
F|-9-9-7-9--7--9--7--9\7-----5-5-4-5--4--5--4-5\4------------------------------7-----|
C|---------------------------------------------------9-9-7-9--7--9--7--9\7---strum---|







Chorus
F|------------------------------------------------------------------------------------|
C|------------------------------------------------------------------------------------|
G|-----------------------------------7-7-7-7-7-7-7-7---8--8--8--8--8--8--8--8---------|
D|-7-7-7-7-7-7-7-7--5-5-5-5-5-5-5-5--7-7-7-7-7-7-7-7---8--8--8--8--8--8--8--8---------|
F|-7-7-7-7-7-7-7-7--5-5-5-5-5-5-5-5--9-9-9-9-9-9-9-9--10-10-10-10-10-10-10-10---------|
C|-5-5-5-5-5-5-5-5--5-5-5-5-5-5-5-5---------------------------------------------------|

F|-----------------------------------------------------|
C|-----------------------------------------------------|
G|-----------------------------------3-3-3-3-3-3-3-3---|
D|-7-7-7-7-7-7-7-7--5-5-5-5-5-5-5-5--5-5-5-5-5-5-5-5---|
F|-7-7-7-7-7-7-7-7--5-5-5-5-5-5-5-5--5-5-5-5-5-5-5-5---|
C|-5-5-5-5-5-5-5-5--5-5-5-5-5-5-5-5--3-3-3-3-3-3-3-3---|







Middle
F|---------------------------------------------------------------------------|
C|---------------------------------------------------------------------------|
G|---------------------------------------------------------------------------|
D|-12-12-12-12--4-4-4-4--7-7-7-7--5-5-5-5--12-12-12-12--4-4-4-4--9-9-9-9-----|
F|-12-12-12-12--4-4-4-4--7-7-7-7--5-5-5-5--12-12-12-12--4-4-4-4--9-9-9-9-----|
C|-10-10-10-10--2-2-2-2--7-7-7-7--7-7-7-7--10-10-10-10--2-2-2-2--7-7-7-7-----|

F|---------------------------------------------------------------------------|
C|---------------------------------------------------------------------------|
G|----------3-3-3-3-----------5-5-5-5-----------3-3-3-3-----------5-5-5-5----|
D|-4-4-4-4--3-3-3-3--9-9-9-9--5-5-5-5--4-4-4-4--3-3-3-3--9-9-9-9--5-5-5-5----|
F|-4-4-4-4--5-5-5-5--9-9-9-9--7-7-7-7--4-4-4-4--5-5-5-5--9-9-9-9--7-7-7-7----|
C|-2-2-2-2-----------7-7-7-7-----------2-2-2-2-----------7-7-7-7-------------|






Verse
F|-7--7---------------7--7--|
C|-5--5---------------5--5--|
G|-5--5---------------5--5--|
D|-0--0-strum chords--5--5--|
F|------and-fingerpick------|
C|-------randomly-----------|







Chorus
F|------------------------------------------------------------------------------------|
C|------------------------------------------------------------------------------------|
G|-----------------------------------7-7-7-7-7-7-7-7---8--8--8--8--8--8--8--8---------|
D|-7-7-7-7-7-7-7-7--5-5-5-5-5-5-5-5--7-7-7-7-7-7-7-7---8--8--8--8--8--8--8--8---------|
F|-7-7-7-7-7-7-7-7--5-5-5-5-5-5-5-5--9-9-9-9-9-9-9-9--10-10-10-10-10-10-10-10---------|
C|-5-5-5-5-5-5-5-5--5-5-5-5-5-5-5-5---------------------------------------------------|

F|-----------------------------------------------------|
C|-----------------------------------------------------|
G|-----------------------------------3-3-3-3-3-3-3-3---|
D|-7-7-7-7-7-7-7-7--5-5-5-5-5-5-5-5--5-5-5-5-5-5-5-5---|
F|-7-7-7-7-7-7-7-7--5-5-5-5-5-5-5-5--5-5-5-5-5-5-5-5---|
C|-5-5-5-5-5-5-5-5--5-5-5-5-5-5-5-5--3-3-3-3-3-3-3-3---|






Middle
F|---------------------------------------------------------------------------|
C|---------------------------------------------------------------------------|
G|---------------------------------------------------------------------------|
D|-12-12-12-12--4-4-4-4--7-7-7-7--5-5-5-5--12-12-12-12--4-4-4-4--9-9-9-9--x2-|
F|-12-12-12-12--4-4-4-4--7-7-7-7--5-5-5-5--12-12-12-12--4-4-4-4--9-9-9-9-----|
C|-10-10-10-10--2-2-2-2--7-7-7-7--7-7-7-7--10-10-10-10--2-2-2-2--7-7-7-7-----|








Outro
F|----------------------------------------------------------------------------------|
C|----------------------------------------------------------------------------------|
G|----------------------------------------------------------------------------------|
D|----------------------------------------------------------------------------------|
F|-9-9-7-9--7-9--7-9-----9-9-7-9-------------9-9-7-9--7-9--7-9----9-9-7-9-----------|
C|--------------------------------0-0-1-----------------------------------0-0-1-2---|





| /  slide up
| \  slide down
| h  hammer-on
| p  pull-off
| ~  vibrato
| +  harmonic
| x  Mute note
===============================================================================
Добавлено: 20.05.2012
Другие материалы по этой песне:

Страница создана 28.02.2012
http://primanota.ru/biffy-clyro/the-conversation-is-chords.htm
Привет, Гость.
Предлагаем пройти революционный курс по гитаре.
Подарок от PrimaNota.Ru, забирай!