PrimaNota.ru - самый крупный в мире бесплатный архив песенных текстов, аккордов, табулатур и нот


Biffy Clyro - Theres No Such Thing As A Jaggy Snake - текст песни, бас-таба, видео

Регистрация Запомнить меня
Войти через:  Facebook Google Twitter Vk Yandex Mail.ru

Biffy Clyro - Theres No Such Thing As A Jaggy Snake - текст песни, бас-таба, видео

Печатать
Просмотров: 186
Band: Biffy Clyro
Album: Infinity Land
Song: Theres No Such Thing as a Jaggy Snake

intro: (wait a bit for the first guitar solo thing)

g]------------------|
d]------------------| (twice)
a]-3-3-3---5-5-5----|
d]------------------|

between verse bit

g]----------------------------------------|
d]----------------------------------------| (twice)
a]----------------------------------------|
D]--0-0--3-4-3-4-3-------3-3--3-4-3-4-3---|

Verse (ie the screaming bit)

g]----------------------------------------------------------------|
d]----------------------------------------------------------------|
a]-5-5---5-3-0-------------------3-3-3-3-3-3-3-3--4-4-4-4-4-4-4-4-| twice
d]--------------3-3----2-3-4-4------------------------------------|

then the between verse bit twice

verse

last time around like this

g]----------------------------------------------------------------|
d]----------------------------------------------------------------|
a]-5-5---5-3-0-------------------3-3-3-3-3-3-3-3------------------|
d]--------------3-3----2-3-4-4--------------------5-5-5-5-5-5-5-5-|

g]------------------|
d]------------------| (3 times)
a]-3-3-3---5-5-5----|
d]------------------|

g]----------------------------------------------------|
d]----------------------------------------------------|
a]-5-5-5-5----------------5-5-5-5-(x4)----------------|
d]-----------5-5-5-5-(x4)----------------5-5-5-5-(x4)-|

g]---------------------------|
d]---------------------------|
a]---------------------------|
d]-5-5-0--5-5-0--5-5-0-5-5-0-|

fast bit

g]--------------------------------------------------------|
d]--------------------------------------------------------|
a]--------------------8--8--8--8-(x2)---------------------|   (4 times)
d]--5---(x12)----------------------------8--8--8--8--(x2)-|


g]------------|
d]------------|
a]------------|  (x2)
d]-5-5-5-5-5--|

g]-----------------------------|
d]-----------------------------|
a]-----------------------------|
d]-5-5-0--5-5-0--5-5-0-5-5-0---|

no bass bit

g]------------|
d]------------|
a]------------|  (x2)
d]-5-5-5-5-5--|

g]-----------------------------|
d]-----------------------------|
a]-----------------------------|
d]-5-5-0--5-5-0--5-5-0-5-5-0---|

g]--------------------------------------------------------|
d]--------------------------------------------------------| (4 times)
a]--------------------8--8--8--8-(x2)---------------------|
d]--5---(x12)----------------------------8--8--8--8--(x2)-|

bridge

g]----------------------------------------|
d]----------------------------------------|
a]------7-7------7/8-------7-7------7/8---|
d]-0-0-------00-------0-0-------00--------|

g]----------------------------------------|
d]----------------------------------------|
a]------7-7------7/8-------7-7------7/8---|
d]-0-0-------00-------0-0-------00--------|

part two

g]------------------------------------|
d]------------------------------------|
a]-----5------5-------5------5--------| twice
d]-000---0000-----000---0000----------|

g]-----------------------------------|
d]-----------------------------------|
a]-----8------8---8-888-----8--------| twice
d]-000---0-0------------000----------|

repeat part two 4 times (i think)

outro
g]-----------------------------------------|
d]-----------------------------------------|
a]-----------------------------------------|
d]-0--0-0--0-0--0--3-3-3-3-3-3-3-3---------|

g]----------------------------------------|
d]----------------------------------------|
a]-0-0-0-0-0-0-0-0------------------------|
d]------------------5-5-5-5-5-5-5-5-------|

repeat 3 times
wait a bit for the feed back

g]--------------------------------------------------------|
d]--------------------------------------------------------|
a]----------------7------7-7-------7-7---------7-7--------|
d]--0---0-0---0-0----0-0-------0-0-----0---0-0-----0-0----|

g]-----------------------------------|
d]-----------------------------------|
a]------7-7-----7-------7-7-----8----|
d]--0-0-----0-0-----0-0-----0-0------|

Enjoy!
Добавлено: 29.05.2012
Другие материалы по этой песне:

Страница создана 20.04.2012
http://primanota.ru/biffy-clyro/theres-no-such-thing-as-a-jaggy-snake-chords.htm
Привет, Гость.
Предлагаем пройти революционный курс по гитаре.
Подарок от PrimaNota.Ru, забирай!