PrimaNota.ru - самый крупный в мире бесплатный архив песенных текстов, аккордов, табулатур и нот


Biffy Clyro - Picture A Knife Fight - таба, видео

Регистрация Запомнить меня
Войти через:  Facebook Google Twitter Vk Yandex Mail.ru

Biffy Clyro - Picture A Knife Fight - таба, видео

Печатать
Просмотров: 100
------------------------------------------------------------------------------
                          PICTURE A KNIFE FIGHT - Biffy Clyro

------------------------------------------------------------------------------
Tabbed by: @BiblicalClyro (Twitter)


Tuning: CGCFAD

Order:

Main Catch
Verse 
Pre-Chorus
Chorus
Main Catch
Verse
Pre-Chorus
Chorus
Bridge
Outro


Main Catch
|---------------------------------------------------------------------------|
|--3------8------9------8------3--------------------------------------------|
|--2------7------8------7------2--------------------------------------------|
|--0-(x4)-0-(x4)-0-(x4)-0-(x4)-0-(x4)---------------------------------------|
|--0------0------0------0------0--------------------------------------------|
|--0------0------0------0------0--------------------------------------------|

Verse
|---------------------------------------------------------------------------|
|-3------8------7------8----------------------------------------------------|
|-2------7------7------7----------------------------------------------------|
|-0-(x4)-5-(x4)-4-(x4)-5-(x4)-----------------------------------------------|
|-0------5------5------5----------------------------------------------------|
|-0------5------4------5----------------------------------------------------|
  I wouldn't listen to her...

Pre-Chorus
|---------------------------------------------------------------------------|
|---------------------------------------------------------------------------|
|------------------------------------------------------------12(+)----------|
|-7-7---------------------------7-7-----------------5-5------12(+)----------|
|-------(x2)-5-5----------------------(x2)----5-5---------------------------|
|----7-7--------0-0---4-4-5-5------7-7-----9-9---------5-5------------------|
  with your stolen eyes...

Chorus
|---------------------------------------------------------------------------|
|---------------------------------------------------------------------------|
|---------------------------9-9-9--9-9-9------------------------------------|
|-0-0--0-0-0--9-9-9--7-7-7--9-9-9--9-9-9--9-9-9--7-7-7----------------------|
|-0-0--0-0-0--9-9-9--7-7-7--7-7-7--7-7-7--9-9-9--7-7-7----------------------|
|-0-0--0-0-0--9-9-9--7-7-7----------------9-9-9--7-7-7----------------------|
We're gonna dig up the sky tonight...

|---------------------------------------------------------------------------|
|---------------------------------------------------------------------------|
|-----------------------------9-9-9--9-9-9----------------------------------|
|-0-0-0--0-0-0--7-7-7--7-7-7--9-9-9--9-9-9--5-5-5--5-5-5--------------------|
|-0-0-0--0-0-0--7-7-7--7-7-7--7-7-7--7-7-7--5-5-5--5-5-5--------------------|
|-0-0-0--0-0-0--7-7-7--7-7-7----------------5-5-5--5-5-5--------------------|

Bridge
|----------------------------------------------------------------|
|----------------------------------------------------------------|
|-7-7-7-7-7-9-11-11-11-11-11-11-11-11-6-6-6-6-6-7-9-9-9-9-9-9-9-9|
|-9-9-9-9-9-9-9--9--9--9--9--9--9--9--7-7-7-7-7-7-7-7-7-7-7-7-7-7|
|-9-9-9-9-9-9-9--9--9--9--9--9--9--9--7-7-7-7-7-7-7-7-7-7-7-7-7-7|
|-9-9-9-9-9-9-9--9--9--9--9--9--9--9--7-7-7-7-7-7-7-7-7-7-7-7-7-7|
 What's the use....
|---------------------------------------------------------------------------|
|-----------------------------3---------------------------------------------|
|-4-4-4-4-4-6-7-7-7-7-7-7-7-7-2---------------------------------------------|
|-5-5-5-5-5-5-5-5-5-5-5-5-5-5-0-(x loads)-----------------------------------|
|-5-5-5-5-5-5-5-5-5-5-5-5-5-5-0---------------------------------------------|
|-5-5-5-5-5-5-5-5-5-5-5-5-5-5-0---------------------------------------------|

Outro
|---------------------------------------------------------------------------|
|-3-------------------------------------------------------------------------|
|-2-------------------------------------------------------------------------|
|-0-(x4)--------------------------------------------------------------------|
|-0-------------------------------------------------------------------------|
|-0-------------------------------------------------------------------------|


************************************

| /   slide up
| \   slide down
| h   hammer-on
| p   pull-off
| ~   vibrato
| +   harmonic
| x   Mute note
| b   Bend
| pb  Pre-bend
| br  Bend release
| pbr Pre-bend release
| brb Bend release bend

************************************
Добавлено: 04.11.2013
Другие материалы по этой песне:

Страница создана 04.09.2013
http://primanota.ru/biffy-clyro/picture-a-knife-fight-chords.htm
Привет, Гость.
Предлагаем пройти революционный курс по гитаре.
Подарок от PrimaNota.Ru, забирай!