PrimaNota.ru - самый крупный в мире бесплатный архив песенных текстов, аккордов, табулатур и нот


Biffy Clyro - Thundermonster - таба, видео

Регистрация Запомнить меня
Войти через:  Facebook Google Twitter Vk Yandex Mail.ru

Biffy Clyro - Thundermonster - таба, видео

Печатать
Просмотров: 187
Авторы музыки: Biffy Clyro
Авторы текста: Simon Neil
Tuning Drop C#

Verse
Eb|---------------------------------|-(9)--(9)----------------------|
Bb|---------------------------------|-------------------------------|
F#|--------14----11-----------------|--9----9----11-----------------|
C#|--14----14----111111111111111111-|--0----0----111111111111111111-|
G#|--12----12----9-9-9-9-9-9-9-9-9--|--0----0----9-9-9-9-9-9-9-9-9--|
C#|--12----12-----------------------|--0----0-----------------------|


Eb|-(9)--(9)----------------------|---------------------------------|
Bb|-------------------------------|---------------------------------|
F#|--9----9----11-----------------|---------(11)-----------(11)(11)-|
C#|--0----0----1111111111111111---|--9-9-9-9-9-9-9-0--0-0-0-0-0-0-0-|
G#|--0----0----9-9-9-9-9-9-9-9-0--|--9-9-9-9-9-9-9-0--0-0-0-0-0-0-0-|
C#|--0----0-----------------------|--9-9-9-9-9-9-9-0--0-0-0-0-0-0-0-|


Pre Chorus
Eb|--------------------------------|---------------------------------|
Bb|-----5------5-------------------|------5--------5-----------------|
F#|-----6------6-----9~------------|------6--------6-----------------|
C#|--------------------------------|-------------------7~------------|
G#|----------------------2-2-4-4---|-----------------------2-2-4-4---|
C#|--0----0-0-----0--------------0-|--0-------0-0----0-------------0-|

Eb|--------------------------------|--------------------------------------|
Bb|-----5------5-------------------|------5--------5---------5------5-----|
F#|-----6------6-----9~------------|------6--------6---------6------6-----|
C#|--------------------------------|--------------------------------------|
G#|----------------------2-2-4-4---|--------------------------------------|
C#|--0----0-0-----0--------------0-|--0-------0-0--------0------0-0-------|


Chorus
Eb|------------------------------------|------------------------------------|
Bb|------------------------------------|------------------------------------|
F#|--------111111119-6---6-6-6-6-6-4-2-|--------111111119-9---9-9-9-9-9-9-9-|
C#|-0---0--x-x-x-x-x-4---4-4-4-4-4-x-x-|-0---0--x-x-x-x-x-7---7-111111119-7-|
G#|-0---0--9-9-9-9-7-4---4-4-4-4-4-2-0-|-0---0--9-9-9-9-7-7---7-7-7-7-7-7-7-|
C#|-0---0--0-0-0-0-0-4---4-4-4-4-4-----|-0---0--0-0-0-0-0-7---7-7-7-7-7-7-7-|

Eb|------------------------------------|----------------------------------|
Bb|------------------------------------|----------------------------------|
F#|--------111111119-6---6-6-6-6-6-4-2-|-11111111111111111111111111111111-|
C#|-0---0--x-x-x-x-x-4---4-4-4-4-4-x-x-|-9-9-9-9-9-9-9-x-x-x-x-x-x-x-x-x--|
G#|-0---0--9-9-9-9-7-4---4-4-4-4-4-2-0-|-9-9-9-9-9-9-9-9-9-9-9-9-9-9-9-9--|
C#|-0---0--0-0-0-0-0-4---4-4-4-4-4-----|-9-9-9-9-9-9-9-0-0-0-0-0-0-0-0-0--|

Verse
Pre Chorus
Chorus x2

Break (Lots of delay)
Eb|-----------------------|---------------------|
Bb|----------11----11-----|---------11----------|
F#|---------11-------11---|--------11-----------|
C#|--11----11----------11-|-11----11------------|
G#|--9----9---------------|-9----9--------------|
C#|-----------------------|---------------------|

Eb|---------------------|-----------------------|
Bb|---------11----------|----------12-----------|
F#|--------11-----------|---------12------------|
C#|-11----11------------|--12----12-------------|
G#|-9----9--------------|--10---10--------------|
C#|---------------------|-----------------------|

Eb|---------------------|-------------------------|------------------------|
Bb|---------11---11-----|--------11--11----12-----|-------11--11----11-----|
F#|--------11------11---|-------11-----11----11---|------11-----11----11---|
C#|-11----11---------11-|-11---11--------11----14-|-11--11--------11----11-|
G#|-9----9--------------|-9---9-------------------|-9----------------------|
C#|---------------------|-------------------------|------------------------|
 
Eb|----------------------------------|
Bb|----------------------------------|
F#|-11111111111111111111111111111111-|
C#|-9-9-9-9-9-9-9-9-0-0-0-0-0-0-0-0--|
G#|-9-9-9-9-9-9-9-9-9-9-9-9-9-9-9-9--|
C#|-9-9-9-9-9-9-9-9-0-0-0-0-0-0-0-0--|
 

Chorus x2

and that's the song. Hope it helps.

I've done a cover of this tab if you're interested:
http://www.youtube.com/watch?v=r-SOtYKKQYI
Добавлено: 05.10.2013
Другие материалы по этой песне:
  • Аккорды и текст

Страница создана 05.10.2013
http://primanota.ru/biffy-clyro/thundermonster-chords.htm
Привет, Гость.
Предлагаем пройти революционный курс по гитаре.
Подарок от PrimaNota.Ru, забирай!